  0
SECTION
  2
HEADER
  9
$ACADVER
  1
AC1015
  9
$ACADMAINTVER
 70
    18
  9
$DWGCODEPAGE
  3
ANSI_1252
  9
$INSBASE
 10
0.0
 20
0.0
 30
0.0
  9
$EXTMIN
 10
-6.613768561060737
 20
-92.84422243903884
 30
-0.0015258207003583
  9
$EXTMAX
 10
19.59777883207175
 20
0.0135959268239958
 30
0.0000000349246037
  9
$LIMMIN
 10
0.0
 20
0.0
  9
$LIMMAX
 10
420.0
 20
297.0
  9
$ORTHOMODE
 70
     0
  9
$REGENMODE
 70
     1
  9
$FILLMODE
 70
     1
  9
$QTEXTMODE
 70
     0
  9
$MIRRTEXT
 70
     0
  9
$LTSCALE
 40
1.0
  9
$ATTMODE
 70
     1
  9
$TEXTSIZE
 40
2.5
  9
$TRACEWID
 40
1.0
  9
$TEXTSTYLE
  7
Standard
  9
$CLAYER
  8
0
  9
$CELTYPE
  6
ByLayer
  9
$CECOLOR
 62
   256
  9
$CELTSCALE
 40
1.0
  9
$DISPSILH
 70
     0
  9
$DIMSCALE
 40
1.0
  9
$DIMASZ
 40
2.5
  9
$DIMEXO
 40
0.625
  9
$DIMDLI
 40
3.75
  9
$DIMRND
 40
0.0
  9
$DIMDLE
 40
0.0
  9
$DIMEXE
 40
1.25
  9
$DIMTP
 40
0.0
  9
$DIMTM
 40
0.0
  9
$DIMTXT
 40
2.5
  9
$DIMCEN
 40
2.5
  9
$DIMTSZ
 40
0.0
  9
$DIMTOL
 70
     0
  9
$DIMLIM
 70
     0
  9
$DIMTIH
 70
     0
  9
$DIMTOH
 70
     0
  9
$DIMSE1
 70
     0
  9
$DIMSE2
 70
     0
  9
$DIMTAD
 70
     1
  9
$DIMZIN
 70
     8
  9
$DIMBLK
  1

  9
$DIMASO
 70
     1
  9
$DIMSHO
 70
     1
  9
$DIMPOST
  1

  9
$DIMAPOST
  1

  9
$DIMALT
 70
     0
  9
$DIMALTD
 70
     3
  9
$DIMALTF
 40
0.03937007874016
  9
$DIMLFAC
 40
1.0
  9
$DIMTOFL
 70
     1
  9
$DIMTVP
 40
0.0
  9
$DIMTIX
 70
     0
  9
$DIMSOXD
 70
     0
  9
$DIMSAH
 70
     0
  9
$DIMBLK1
  1

  9
$DIMBLK2
  1

  9
$DIMSTYLE
  2
ISO-25
  9
$DIMCLRD
 70
     0
  9
$DIMCLRE
 70
     0
  9
$DIMCLRT
 70
     0
  9
$DIMTFAC
 40
1.0
  9
$DIMGAP
 40
0.625
  9
$DIMJUST
 70
     0
  9
$DIMSD1
 70
     0
  9
$DIMSD2
 70
     0
  9
$DIMTOLJ
 70
     0
  9
$DIMTZIN
 70
     8
  9
$DIMALTZ
 70
     0
  9
$DIMALTTZ
 70
     0
  9
$DIMUPT
 70
     0
  9
$DIMDEC
 70
     2
  9
$DIMTDEC
 70
     2
  9
$DIMALTU
 70
     2
  9
$DIMALTTD
 70
     3
  9
$DIMTXSTY
  7
Standard
  9
$DIMAUNIT
 70
     0
  9
$DIMADEC
 70
     0
  9
$DIMALTRND
 40
0.0
  9
$DIMAZIN
 70
     0
  9
$DIMDSEP
 70
    44
  9
$DIMATFIT
 70
     3
  9
$DIMFRAC
 70
     0
  9
$DIMLDRBLK
  1

  9
$DIMLUNIT
 70
     2
  9
$DIMLWD
 70
    -2
  9
$DIMLWE
 70
    -2
  9
$DIMTMOVE
 70
     0
  9
$LUNITS
 70
     2
  9
$LUPREC
 70
     4
  9
$SKETCHINC
 40
1.0
  9
$FILLETRAD
 40
0.0
  9
$AUNITS
 70
     0
  9
$AUPREC
 70
     0
  9
$MENU
  1
.
  9
$ELEVATION
 40
0.0
  9
$PELEVATION
 40
0.0
  9
$THICKNESS
 40
0.0
  9
$LIMCHECK
 70
     0
  9
$CHAMFERA
 40
0.0
  9
$CHAMFERB
 40
0.0
  9
$CHAMFERC
 40
0.0
  9
$CHAMFERD
 40
0.0
  9
$SKPOLY
 70
     0
  9
$TDCREATE
 40
2460476.646099537
  9
$TDUCREATE
 40
2460476.354432870
  9
$TDUPDATE
 40
2460476.696354167
  9
$TDUUPDATE
 40
2460476.404687500
  9
$TDINDWG
 40
0.0066550926
  9
$TDUSRTIMER
 40
0.0066550926
  9
$USRTIMER
 70
     1
  9
$ANGBASE
 50
0.0
  9
$ANGDIR
 70
     0
  9
$PDMODE
 70
     0
  9
$PDSIZE
 40
0.0
  9
$PLINEWID
 40
0.0
  9
$SPLFRAME
 70
     0
  9
$SPLINETYPE
 70
     6
  9
$SPLINESEGS
 70
     8
  9
$HANDSEED
  5
1BA20
  9
$SURFTAB1
 70
     6
  9
$SURFTAB2
 70
     6
  9
$SURFTYPE
 70
     6
  9
$SURFU
 70
     6
  9
$SURFV
 70
     6
  9
$UCSBASE
  2

  9
$UCSNAME
  2

  9
$UCSORG
 10
0.0
 20
0.0
 30
0.0
  9
$UCSXDIR
 10
1.0
 20
0.0
 30
0.0
  9
$UCSYDIR
 10
0.0
 20
1.0
 30
0.0
  9
$UCSORTHOREF
  2

  9
$UCSORTHOVIEW
 70
     0
  9
$UCSORGTOP
 10
0.0
 20
0.0
 30
0.0
  9
$UCSORGBOTTOM
 10
0.0
 20
0.0
 30
0.0
  9
$UCSORGLEFT
 10
0.0
 20
0.0
 30
0.0
  9
$UCSORGRIGHT
 10
0.0
 20
0.0
 30
0.0
  9
$UCSORGFRONT
 10
0.0
 20
0.0
 30
0.0
  9
$UCSORGBACK
 10
0.0
 20
0.0
 30
0.0
  9
$PUCSBASE
  2

  9
$PUCSNAME
  2

  9
$PUCSORG
 10
0.0
 20
0.0
 30
0.0
  9
$PUCSXDIR
 10
1.0
 20
0.0
 30
0.0
  9
$PUCSYDIR
 10
0.0
 20
1.0
 30
0.0
  9
$PUCSORTHOREF
  2

  9
$PUCSORTHOVIEW
 70
     0
  9
$PUCSORGTOP
 10
0.0
 20
0.0
 30
0.0
  9
$PUCSORGBOTTOM
 10
0.0
 20
0.0
 30
0.0
  9
$PUCSORGLEFT
 10
0.0
 20
0.0
 30
0.0
  9
$PUCSORGRIGHT
 10
0.0
 20
0.0
 30
0.0
  9
$PUCSORGFRONT
 10
0.0
 20
0.0
 30
0.0
  9
$PUCSORGBACK
 10
0.0
 20
0.0
 30
0.0
  9
$USERI1
 70
     0
  9
$USERI2
 70
     0
  9
$USERI3
 70
     0
  9
$USERI4
 70
     0
  9
$USERI5
 70
     0
  9
$USERR1
 40
0.0
  9
$USERR2
 40
0.0
  9
$USERR3
 40
0.0
  9
$USERR4
 40
0.0
  9
$USERR5
 40
0.0
  9
$WORLDVIEW
 70
     1
  9
$SHADEDGE
 70
     3
  9
$SHADEDIF
 70
    70
  9
$TILEMODE
 70
     1
  9
$MAXACTVP
 70
    48
  9
$PINSBASE
 10
0.0
 20
0.0
 30
0.0
  9
$PLIMCHECK
 70
     0
  9
$PEXTMIN
 10
0.0
 20
0.0
 30
0.0
  9
$PEXTMAX
 10
0.0
 20
0.0
 30
0.0
  9
$PLIMMIN
 10
0.0
 20
0.0
  9
$PLIMMAX
 10
12.0
 20
9.0
  9
$UNITMODE
 70
     0
  9
$VISRETAIN
 70
     1
  9
$PLINEGEN
 70
     0
  9
$PSLTSCALE
 70
     1
  9
$TREEDEPTH
 70
  3020
  9
$CMLSTYLE
  2
Standard
  9
$CMLJUST
 70
     0
  9
$CMLSCALE
 40
20.0
  9
$PROXYGRAPHICS
 70
     1
  9
$MEASUREMENT
 70
     1
  9
$CELWEIGHT
370
    -1
  9
$ENDCAPS
280
     0
  9
$JOINSTYLE
280
     0
  9
$LWDISPLAY
290
     0
  9
$INSUNITS
 70
     4
  9
$HYPERLINKBASE
  1

  9
$STYLESHEET
  1

  9
$XEDIT
290
     1
  9
$CEPSNTYPE
380
     0
  9
$PSTYLEMODE
290
     1
  9
$FINGERPRINTGUID
  2
{F9DBAE76-D248-2544-A6C6-CA8F37DA12E5}
  9
$VERSIONGUID
  2
{41A48048-75A2-0D42-8327-4591FDA9871C}
  9
$EXTNAMES
290
     1
  9
$PSVPSCALE
 40
0.0
  9
$OLESTARTUP
290
     0
  0
ENDSEC
  0
SECTION
  2
CLASSES
  0
CLASS
  1
ACDBDICTIONARYWDFLT
  2
AcDbDictionaryWithDefault
  3
ObjectDBX Classes
 90
        0
280
     0
281
     0
  0
CLASS
  1
ACDBPLACEHOLDER
  2
AcDbPlaceHolder
  3
ObjectDBX Classes
 90
        0
280
     0
281
     0
  0
CLASS
  1
LAYOUT
  2
AcDbLayout
  3
ObjectDBX Classes
 90
        0
280
     0
281
     0
  0
CLASS
  1
DICTIONARYVAR
  2
AcDbDictionaryVar
  3
ObjectDBX Classes
 90
        0
280
     0
281
     0
  0
CLASS
  1
TABLESTYLE
  2
AcDbTableStyle
  3
ObjectDBX Classes
 90
     4095
280
     0
281
     0
  0
CLASS
  1
MATERIAL
  2
AcDbMaterial
  3
ObjectDBX Classes
 90
     1153
280
     0
281
     0
  0
CLASS
  1
VISUALSTYLE
  2
AcDbVisualStyle
  3
ObjectDBX Classes
 90
     4095
280
     0
281
     0
  0
CLASS
  1
SCALE
  2
AcDbScale
  3
ObjectDBX Classes
 90
     1153
280
     0
281
     0
  0
CLASS
  1
MLEADERSTYLE
  2
AcDbMLeaderStyle
  3
ACDB_MLEADERSTYLE_CLASS
 90
     4095
280
     0
281
     0
  0
CLASS
  1
CELLSTYLEMAP
  2
AcDbCellStyleMap
  3
ObjectDBX Classes
 90
     1152
280
     0
281
     0
  0
CLASS
  1
EXACXREFPANELOBJECT
  2
ExAcXREFPanelObject
  3
EXAC_ESW
 90
    33793
280
     0
281
     0
  0
CLASS
  1
NPOCOLLECTION
  2
AcDbImpNonPersistentObjectsCollection
  3
ObjectDBX Classes
 90
    33921
280
     0
281
     0
  0
CLASS
  1
LAYER_INDEX
  2
AcDbLayerIndex
  3
ObjectDBX Classes
 90
    32768
280
     0
281
     0
  0
CLASS
  1
SPATIAL_INDEX
  2
AcDbSpatialIndex
  3
ObjectDBX Classes
 90
    32768
280
     0
281
     0
  0
CLASS
  1
IDBUFFER
  2
AcDbIdBuffer
  3
ObjectDBX Classes
 90
    32768
280
     0
281
     0
  0
CLASS
  1
ACDBSECTIONVIEWSTYLE
  2
AcDbSectionViewStyle
  3
ObjectDBX Classes
 90
     1025
280
     0
281
     0
  0
CLASS
  1
ACDBDETAILVIEWSTYLE
  2
AcDbDetailViewStyle
  3
ObjectDBX Classes
 90
     1025
280
     0
281
     0
  0
CLASS
  1
XRECORD
  2
AcDbXrecord
  3
ObjectDBX Classes
 90
        0
280
     0
281
     0
  0
ENDSEC
  0
SECTION
  2
TABLES
  0
TABLE
  2
VPORT
  5
8
102
{ACAD_XDICTIONARY
360
1B92E
102
}
330
0
100
AcDbSymbolTable
 70
     1
  0
VPORT
  5
EA
330
8
100
AcDbSymbolTableRecord
100
AcDbViewportTableRecord
  2
*Active
 70
     0
 10
0.0
 20
0.0
 11
1.0
 21
1.0
 12
6.492005135505507
 22
-46.41531325610742
 13
0.0
 23
0.0
 14
10.0
 24
10.0
 15
10.0
 25
10.0
 16
0.0
 26
0.0
 36
1.0
 17
0.0
 27
0.0
 37
0.0
 40
98.74587474868116
 41
0.9846153846153848
 42
50.0
 43
0.0
 44
0.0
 50
0.0
 51
0.0
 71
     0
 72
  1000
 73
     1
 74
     3
 75
     0
 76
     1
 77
     0
 78
     0
281
     0
 65
     1
110
0.0
120
0.0
130
0.0
111
1.0
121
0.0
131
0.0
112
0.0
122
1.0
132
0.0
 79
     0
146
0.0
1001
ACAD_NAV_VCDISPLAY
1070
     3
  0
ENDTAB
  0
TABLE
  2
LTYPE
  5
5
330
0
100
AcDbSymbolTable
 70
     1
  0
LTYPE
  5
14
330
5
100
AcDbSymbolTableRecord
100
AcDbLinetypeTableRecord
  2
ByBlock
 70
     0
  3

 72
    65
 73
     0
 40
0.0
  0
LTYPE
  5
15
330
5
100
AcDbSymbolTableRecord
100
AcDbLinetypeTableRecord
  2
ByLayer
 70
     0
  3

 72
    65
 73
     0
 40
0.0
  0
LTYPE
  5
16
330
5
100
AcDbSymbolTableRecord
100
AcDbLinetypeTableRecord
  2
Continuous
 70
     0
  3
Solid line
 72
    65
 73
     0
 40
0.0
  0
ENDTAB
  0
TABLE
  2
LAYER
  5
2
102
{ACAD_XDICTIONARY
360
1FF
102
}
330
0
100
AcDbSymbolTable
 70
     1
  0
LAYER
  5
10
102
{ACAD_XDICTIONARY
360
13C
102
}
330
2
100
AcDbSymbolTableRecord
100
AcDbLayerTableRecord
  2
0
 70
     0
 62
     7
  6
Continuous
370
    -3
390
F
  0
ENDTAB
  0
TABLE
  2
STYLE
  5
3
330
0
100
AcDbSymbolTable
 70
     1
  0
STYLE
  5
11
330
3
100
AcDbSymbolTableRecord
100
AcDbTextStyleTableRecord
  2
Standard
 70
     0
 40
0.0
 41
1.0
 50
0.0
 71
     0
 42
2.5
  3
arial_1.ttf
  4

1001
ACAD
1000
Arial
1071
       34
  0
ENDTAB
  0
TABLE
  2
VIEW
  5
6
330
0
100
AcDbSymbolTable
 70
     0
  0
ENDTAB
  0
TABLE
  2
UCS
  5
7
330
0
100
AcDbSymbolTable
 70
     0
  0
ENDTAB
  0
TABLE
  2
APPID
  5
9
330
0
100
AcDbSymbolTable
 70
     8
  0
APPID
  5
12
330
9
100
AcDbSymbolTableRecord
100
AcDbRegAppTableRecord
  2
ACAD
 70
     0
  0
APPID
  5
9E
330
9
100
AcDbSymbolTableRecord
100
AcDbRegAppTableRecord
  2
ACAD_PSEXT
 70
     0
  0
APPID
  5
133
330
9
100
AcDbSymbolTableRecord
100
AcDbRegAppTableRecord
  2
AcadAnnoPO
 70
     0
  0
APPID
  5
134
330
9
100
AcDbSymbolTableRecord
100
AcDbRegAppTableRecord
  2
AcadAnnotative
 70
     0
  0
APPID
  5
135
330
9
100
AcDbSymbolTableRecord
100
AcDbRegAppTableRecord
  2
ACAD_DSTYLE_DIMJAG
 70
     0
  0
APPID
  5
136
330
9
100
AcDbSymbolTableRecord
100
AcDbRegAppTableRecord
  2
ACAD_DSTYLE_DIMTALN
 70
     0
  0
APPID
  5
165
330
9
100
AcDbSymbolTableRecord
100
AcDbRegAppTableRecord
  2
ACAD_MLEADERVER
 70
     0
  0
APPID
  5
217
330
9
100
AcDbSymbolTableRecord
100
AcDbRegAppTableRecord
  2
ACAD_NAV_VCDISPLAY
 70
     0
  0
ENDTAB
  0
TABLE
  2
DIMSTYLE
  5
A
330
0
100
AcDbSymbolTable
 70
     1
100
AcDbDimStyleTable
 71
     0
  0
DIMSTYLE
105
27
330
A
100
AcDbSymbolTableRecord
100
AcDbDimStyleTableRecord
  2
ISO-25
 70
     0
 41
2.5
 42
0.625
 43
3.75
 44
1.25
 73
     0
 74
     0
 77
     1
 78
     8
140
2.5
141
2.5
143
0.03937007874016
147
0.625
171
     3
172
     1
271
     2
272
     2
274
     3
278
    44
283
     0
284
     8
340
11
  0
ENDTAB
  0
TABLE
  2
BLOCK_RECORD
  5
1
330
0
100
AcDbSymbolTable
 70
     4
  0
BLOCK_RECORD
  5
1F
102
{ACAD_XDICTIONARY
360
1CE
102
}
330
1
100
AcDbSymbolTableRecord
100
AcDbBlockTableRecord
  2
*Model_Space
340
22
  0
BLOCK_RECORD
  5
D2
102
{ACAD_XDICTIONARY
360
1B8E1
102
}
330
1
100
AcDbSymbolTableRecord
100
AcDbBlockTableRecord
  2
*Paper_Space
340
D3
  0
BLOCK_RECORD
  5
D6
102
{ACAD_XDICTIONARY
360
1B8E3
102
}
330
1
100
AcDbSymbolTableRecord
100
AcDbBlockTableRecord
  2
*Paper_Space0
340
D7
  0
BLOCK_RECORD
  5
1B61C
330
1
100
AcDbSymbolTableRecord
100
AcDbBlockTableRecord
  2
TTFA442X45T-20-Front
340
0
102
{BLKREFS
331
1B8DA
102
}
  0
BLOCK_RECORD
  5
1B77B
330
1
100
AcDbSymbolTableRecord
100
AcDbBlockTableRecord
  2
TTFA442X45T-20-Top
340
0
102
{BLKREFS
331
1B8DB
102
}
  0
BLOCK_RECORD
  5
1B826
330
1
100
AcDbSymbolTableRecord
100
AcDbBlockTableRecord
  2
TTFA442X45T-20-ISO
340
0
102
{BLKREFS
331
1B8DC
102
}
  0
ENDTAB
  0
ENDSEC
  0
SECTION
  2
BLOCKS
  0
BLOCK
  5
20
330
1F
100
AcDbEntity
  8
0
100
AcDbBlockBegin
  2
*Model_Space
 70
     0
 10
0.0
 20
0.0
 30
0.0
  3
*Model_Space
  1

  0
ENDBLK
  5
21
330
1F
100
AcDbEntity
  8
0
100
AcDbBlockEnd
  0
BLOCK
  5
D4
330
D2
100
AcDbEntity
 67
     1
  8
0
100
AcDbBlockBegin
  2
*Paper_Space
 70
     0
 10
0.0
 20
0.0
 30
0.0
  3
*Paper_Space
  1

  0
ENDBLK
  5
D5
330
D2
100
AcDbEntity
 67
     1
  8
0
100
AcDbBlockEnd
  0
BLOCK
  5
D8
330
D6
100
AcDbEntity
 67
     1
  8
0
100
AcDbBlockBegin
  2
*Paper_Space0
 70
     0
 10
0.0
 20
0.0
 30
0.0
  3
*Paper_Space0
  1

  0
ENDBLK
  5
D9
330
D6
100
AcDbEntity
 67
     1
  8
0
100
AcDbBlockEnd
  0
BLOCK
  5
1B61D
330
1B61C
100
AcDbEntity
  8
0
100
AcDbBlockBegin
  2
TTFA442X45T-20-Front
 70
     0
 10
0.0
 20
0.0
 30
0.0
  3
TTFA442X45T-20-Front
  1

  0
LINE
  5
1B61F
330
1B61C
100
AcDbEntity
  8
0
100
AcDbLine
 10
3.5
 20
0.0
 30
0.0
 11
-3.5
 21
0.0
 31
0.0
  0
LINE
  5
1B620
330
1B61C
100
AcDbEntity
  8
0
100
AcDbLine
 10
1.455377343266596
 20
-3.795897994836174
 30
0.0
 11
0.3631484389423506
 21
-3.795897994836174
 31
0.0
  0
LINE
  5
1B621
330
1B61C
100
AcDbEntity
  8
0
100
AcDbLine
 10
3.483536766931139
 20
-0.5
 30
0.0
 11
0.3390746133802247
 21
-0.4999999999999993
 31
0.0
  0
LINE
  5
1B622
330
1B61C
100
AcDbEntity
  8
0
100
AcDbLine
 10
-0.339074613380223
 20
-0.4999999999999993
 30
0.0
 11
-3.483536766931139
 21
-0.5
 31
0.0
  0
LINE
  5
1B623
330
1B61C
100
AcDbEntity
  8
0
100
AcDbLine
 10
-0.3631484389423514
 20
-3.795897994836174
 30
0.0
 11
-1.455377343266597
 21
-3.795897994836174
 31
0.0
  0
LINE
  5
1B624
330
1B61C
100
AcDbEntity
  8
0
100
AcDbLine
 10
1.499999999999999
 20
-21.8
 30
0.0
 11
-1.5
 21
-21.8
 31
0.0
  0
LINE
  5
1B625
330
1B61C
100
AcDbEntity
  8
0
100
AcDbLine
 10
-0.7207913581072654
 20
-38.61029585960745
 30
0.0
 11
-1.299999999999997
 21
-38.61029585960745
 31
0.0
  0
LINE
  5
1B626
330
1B61C
100
AcDbEntity
  8
0
100
AcDbLine
 10
1.299999999999997
 20
-38.61029585960745
 30
0.0
 11
0.8581089849922488
 21
-38.61029585960745
 31
0.0
  0
LINE
  5
1B627
330
1B61C
100
AcDbEntity
  8
0
100
AcDbLine
 10
1.299999999999999
 20
-22.0
 30
0.0
 11
-1.299999999999999
 21
-22.0
 31
0.0
  0
LINE
  5
1B628
330
1B61C
100
AcDbEntity
  8
0
100
AcDbLine
 10
-3.5
 20
-1.126477935952967
 30
0.0
 11
-3.5
 21
0.0
 31
0.0
  0
LINE
  5
1B629
330
1B61C
100
AcDbEntity
  8
0
100
AcDbLine
 10
3.5
 20
-1.126477935952967
 30
0.0
 11
3.5
 21
0.0
 31
0.0
  0
LINE
  5
1B62A
330
1B61C
100
AcDbEntity
  8
0
100
AcDbLine
 10
-1.500000000000001
 20
-21.8
 30
0.0
 11
-1.500000000000001
 21
-3.795897994836174
 31
0.0
  0
LINE
  5
1B62B
330
1B61C
100
AcDbEntity
  8
0
100
AcDbLine
 10
1.5
 20
-21.8
 30
0.0
 11
1.5
 21
-3.795897994836174
 31
0.0
  0
LINE
  5
1B62C
330
1B61C
100
AcDbEntity
  8
0
100
AcDbLine
 10
0.0
 20
-45.0
 30
0.0
 11
-0.4769619764973003
 21
-42.65565698766567
 31
0.0
  0
LINE
  5
1B62D
330
1B61C
100
AcDbEntity
  8
0
100
AcDbLine
 10
-1.23604402760976
 20
-38.92464950698033
 30
0.0
 11
-1.299999999999996
 21
-38.61029585960746
 31
0.0
  0
LINE
  5
1B62E
330
1B61C
100
AcDbEntity
  8
0
100
AcDbLine
 10
1.299999999999998
 20
-38.61029585960745
 30
0.0
 11
1.299999999999998
 21
-38.35604166211374
 31
0.0
  0
LINE
  5
1B62F
330
1B61C
100
AcDbEntity
  8
0
100
AcDbLine
 10
-0.6379202409701117
 20
-41.86452184233312
 30
0.0
 11
-1.073428185646933
 21
-39.72393190596747
 31
0.0
  0
LINE
  5
1B630
330
1B61C
100
AcDbEntity
  8
0
100
AcDbLine
 10
1.077614455980517
 20
-39.7033557299034
 30
0.0
 11
1.299999999999995
 21
-38.61029585960746
 31
0.0
  0
LINE
  5
1B631
330
1B61C
100
AcDbEntity
  8
0
100
AcDbLine
 10
-1.299999999999998
 20
-38.61029585960745
 30
0.0
 11
-1.299999999999998
 21
-36.82217607495916
 31
0.0
  0
LINE
  5
1B632
330
1B61C
100
AcDbEntity
  8
0
100
AcDbLine
 10
-1.299999999999998
 20
-35.76448651058163
 30
0.0
 11
-1.299999999999998
 21
-33.82217607495916
 31
0.0
  0
LINE
  5
1B633
330
1B61C
100
AcDbEntity
  8
0
100
AcDbLine
 10
-1.299999999999998
 20
-32.76448651058164
 30
0.0
 11
-1.299999999999998
 21
-30.82217607495916
 31
0.0
  0
LINE
  5
1B634
330
1B61C
100
AcDbEntity
  8
0
100
AcDbLine
 10
-1.299999999999998
 20
-29.76448651058165
 30
0.0
 11
-1.299999999999998
 21
-27.82217607495916
 31
0.0
  0
LINE
  5
1B635
330
1B61C
100
AcDbEntity
  8
0
100
AcDbLine
 10
-1.299999999999998
 20
-26.76448651058163
 30
0.0
 11
-1.299999999999998
 21
-24.82217607495916
 31
0.0
  0
LINE
  5
1B636
330
1B61C
100
AcDbEntity
  8
0
100
AcDbLine
 10
-1.299999999999998
 20
-23.76448651058164
 30
0.0
 11
-1.299999999999998
 21
-22.0
 31
0.0
  0
LINE
  5
1B637
330
1B61C
100
AcDbEntity
  8
0
100
AcDbLine
 10
1.299999999999998
 20
-37.47476746658882
 30
0.0
 11
1.299999999999998
 21
-35.45610520863327
 31
0.0
  0
LINE
  5
1B638
330
1B61C
100
AcDbEntity
  8
0
100
AcDbLine
 10
1.299999999999998
 20
-34.39841564425576
 30
0.0
 11
1.299999999999998
 21
-32.45610520863326
 31
0.0
  0
LINE
  5
1B639
330
1B61C
100
AcDbEntity
  8
0
100
AcDbLine
 10
1.299999999999998
 20
-31.39841564425575
 30
0.0
 11
1.299999999999998
 21
-29.45610520863327
 31
0.0
  0
LINE
  5
1B63A
330
1B61C
100
AcDbEntity
  8
0
100
AcDbLine
 10
1.299999999999998
 20
-28.39841564425576
 30
0.0
 11
1.299999999999998
 21
-26.45610520863327
 31
0.0
  0
LINE
  5
1B63B
330
1B61C
100
AcDbEntity
  8
0
100
AcDbLine
 10
1.299999999999998
 20
-25.39841564425576
 30
0.0
 11
1.299999999999998
 21
-23.41925558780051
 31
0.0
  0
LINE
  5
1B63C
330
1B61C
100
AcDbEntity
  8
0
100
AcDbLine
 10
1.299999999999998
 20
-22.51305672547326
 30
0.0
 11
1.299999999999998
 21
-22.0
 31
0.0
  0
LINE
  5
1B63D
330
1B61C
100
AcDbEntity
  8
0
100
AcDbLine
 10
-1.3
 20
-22.0
 30
0.0
 11
-1.499999999999998
 21
-21.80000000000001
 31
0.0
  0
LINE
  5
1B63E
330
1B61C
100
AcDbEntity
  8
0
100
AcDbLine
 10
1.3
 20
-22.0
 30
0.0
 11
1.499999999999998
 21
-21.80000000000001
 31
0.0
  0
SPLINE
  5
1B63F
330
1B61C
100
AcDbEntity
  8
0
100
AcDbSpline
210
0.0
220
0.0
230
1.0
 70
     8
 71
     3
 72
    17
 73
    13
 74
     0
 42
0.000000001
 43
0.0000000001
 40
1.351427378112076
 40
1.351427378112076
 40
1.351427378112076
 40
1.351427378112076
 40
2.485818540050964
 40
2.485818540050964
 40
2.485818540050964
 40
3.654166695700582
 40
3.654166695700582
 40
3.654166695700582
 40
4.820054443680181
 40
4.820054443680181
 40
4.820054443680181
 40
5.131350834409754
 40
5.131350834409754
 40
5.131350834409754
 40
5.131350834409754
 10
1.938623515616534
 20
-37.75555490197623
 30
0.0
 10
2.070990775082933
 20
-37.93609886279856
 30
0.0
 10
1.738964458809374
 20
-38.1166428236209
 30
0.0
 10
1.152909404970232
 20
-38.29718678444323
 30
0.0
 10
0.549311312675693
 20
-38.48313516866716
 30
0.0
 10
-0.2867664354493038
 20
-38.6690835528911
 30
0.0
 10
-0.8790109863629977
 20
-38.85503193711503
 30
0.0
 10
-1.470008337947836
 20
-39.04058873529627
 30
0.0
 10
-1.787670938406167
 20
-39.22614553347749
 30
0.0
 10
-1.684389969709305
 20
-39.41170233165872
 30
0.0
 10
-1.656813564654785
 20
-39.46124669101001
 30
0.0
 10
-1.600114374177955
 20
-39.51079105036129
 30
0.0
 10
-1.520353272528502
 20
-39.56033540971256
 30
0.0
  0
SPLINE
  5
1B640
330
1B61C
100
AcDbEntity
  8
0
100
AcDbSpline
210
0.0
220
0.0
230
1.0
 70
     8
 71
     3
 72
    18
 73
    14
 74
     0
 42
0.000000001
 43
0.0000000001
 40
0.0
 40
0.0
 40
0.0
 40
0.0
 40
0.0591303055810815
 40
0.0591303055810815
 40
0.1182606111621631
 40
0.1182606111621631
 40
0.1773909167432446
 40
0.1773909167432446
 40
0.2365212223243262
 40
0.2365212223243262
 40
0.2956515279054078
 40
0.2956515279054078
 40
0.3038006500613736
 40
0.3038006500613736
 40
0.3038006500613736
 40
0.3038006500613736
 10
-0.7207913581072662
 20
-38.61029585960745
 30
0.0
 10
-0.5687392796061333
 20
-38.53635930330393
 30
0.0
 10
-0.3970249124278835
 20
-38.46323208420435
 30
0.0
 10
-0.0367299840640558
 20
-38.31535897159729
 30
0.0
 10
0.1478361802866703
 20
-38.24223175249772
 30
0.0
 10
0.5016666498102412
 20
-38.09435863989067
 30
0.0
 10
0.6669885849825424
 20
-38.02123142079108
 30
0.0
 10
0.9528235338185739
 20
-37.87335830818403
 30
0.0
 10
1.070151781826267
 20
-37.80023108908444
 30
0.0
 10
1.238284558259246
 20
-37.65235797647739
 30
0.0
 10
1.287215755609314
 20
-37.57923075737781
 30
0.0
 10
1.299272251633783
 20
-37.49510453567026
 30
0.0
 10
1.299999981955933
 20
-37.48493024228527
 30
0.0
 10
1.299999905833077
 20
-37.4747670838886
 30
0.0
  0
SPLINE
  5
1B641
330
1B61C
100
AcDbEntity
  8
0
100
AcDbSpline
210
0.0
220
0.0
230
1.0
 70
     8
 71
     3
 72
     8
 73
     4
 74
     0
 42
0.000000001
 43
0.0000000001
 40
0.4996745139646587
 40
0.4996745139646587
 40
0.4996745139646587
 40
0.4996745139646587
 40
0.5486885212301981
 40
0.5486885212301981
 40
0.5486885212301981
 40
0.5486885212301981
 10
-1.02710398238907
 20
-38.7793460161866
 30
0.0
 10
-0.9468427858723325
 20
-38.72223857803761
 30
0.0
 10
-0.8429930951891289
 20
-38.66621622461019
 30
0.0
 10
-0.7207913581072696
 20
-38.61029585960745
 30
0.0
  0
SPLINE
  5
1B642
330
1B61C
100
AcDbEntity
  8
0
100
AcDbSpline
210
0.0
220
0.0
230
1.0
 70
     8
 71
     3
 72
     8
 73
     4
 74
     0
 42
0.000000001
 43
0.0000000001
 40
0.2870534794443102
 40
0.2870534794443102
 40
0.2870534794443102
 40
0.2870534794443102
 40
0.3324886257930784
 40
0.3324886257930784
 40
0.3324886257930784
 40
0.3324886257930784
 10
1.128736155595013
 20
-38.46845098012427
 30
0.0
 10
1.057556822183984
 20
-38.51578225859359
 30
0.0
 10
0.9661502212141321
 20
-38.56284888395018
 30
0.0
 10
0.8581089849922495
 20
-38.61029585960745
 30
0.0
  0
SPLINE
  5
1B643
330
1B61C
100
AcDbEntity
  8
0
100
AcDbSpline
210
0.0
220
0.0
230
1.0
 70
     8
 71
     3
 72
     8
 73
     4
 74
     0
 42
0.000000001
 43
0.0000000001
 40
7.958032867806193
 40
7.958032867806193
 40
7.958032867806193
 40
7.958032867806193
 40
8.377580409572781
 40
8.377580409572781
 40
8.377580409572781
 40
8.377580409572781
 10
1.422279601930998
 20
-40.90997666420483
 30
0.0
 10
1.389798099178261
 20
-40.97674972933904
 30
0.0
 10
1.315558531777018
 20
-41.04352279447325
 30
0.0
 10
1.207838769282764
 20
-41.11029585960745
 30
0.0
  0
SPLINE
  5
1B644
330
1B61C
100
AcDbEntity
  8
0
100
AcDbSpline
210
0.0
220
0.0
230
1.0
 70
     8
 71
     3
 72
     8
 73
     4
 74
     0
 42
0.000000001
 43
0.0000000001
 40
0.0
 40
0.0
 40
0.0
 40
0.0
 40
0.0388480225948267
 40
0.0388480225948267
 40
0.0388480225948267
 40
0.0388480225948267
 10
0.7402682263481808
 20
-40.79858216431773
 30
0.0
 10
0.8076655053541708
 20
-40.73641042736101
 30
0.0
 10
0.8562978479515082
 20
-40.6759480073533
 30
0.0
 10
0.8837812399794863
 20
-40.61588251955805
 30
0.0
  0
SPLINE
  5
1B645
330
1B61C
100
AcDbEntity
  8
0
100
AcDbSpline
210
0.0
220
0.0
230
1.0
 70
     8
 71
     3
 72
    18
 73
    14
 74
     0
 42
0.000000001
 43
0.0000000001
 40
0.0
 40
0.0
 40
0.0
 40
0.0
 40
0.056911081025964
 40
0.056911081025964
 40
0.1124768502393556
 40
0.1124768502393556
 40
0.1667057075262738
 40
0.1667057075262738
 40
0.2196071262299652
 40
0.2196071262299652
 40
0.2711918369008041
 40
0.2711918369008041
 40
0.2964108849542844
 40
0.2964108849542844
 40
0.2964108849542844
 40
0.2964108849542844
 10
0.8581089849922493
 20
-38.61029585960745
 30
0.0
 10
0.7160655855536437
 20
-38.67655007276677
 30
0.0
 10
0.5538570623367862
 20
-38.74294467901516
 30
0.0
 10
0.2133196191154771
 20
-38.87749003847409
 30
0.0
 10
0.0391722443053297
 20
-38.94411602518133
 30
0.0
 10
-0.2945345763152266
 20
-39.07916833120487
 30
0.0
 10
-0.4506656076794888
 20
-39.14604847387742
 30
0.0
 10
-0.7214788424102837
 20
-39.28165876131385
 30
0.0
 10
-0.83405639975599
 20
-39.34881898999761
 30
0.0
 10
-0.9992355381672789
 20
-39.48504554815542
 30
0.0
 10
-1.051381018897369
 20
-39.55251552420319
 30
0.0
 10
-1.079312842066813
 20
-39.655742247479
 30
0.0
 10
-1.080392296297387
 20
-39.68969672984727
 30
0.0
 10
-1.073429360218099
 20
-39.72392253137007
 30
0.0
  0
SPLINE
  5
1B646
330
1B61C
100
AcDbEntity
  8
0
100
AcDbSpline
210
0.0
220
0.0
230
1.0
 70
     8
 71
     3
 72
     8
 73
     4
 74
     0
 42
0.000000001
 43
0.0000000001
 40
0.0
 40
0.0
 40
0.0
 40
0.0
 40
0.0629791854309205
 40
0.0629791854309205
 40
0.0629791854309205
 40
0.0629791854309205
 10
-1.545529170000665
 20
-39.13039360770471
 30
0.0
 10
-1.370151651756356
 20
-39.01614962797346
 30
0.0
 10
-1.196287362728788
 20
-38.89970766419358
 30
0.0
 10
-1.027103244180243
 20
-38.77934731994059
 30
0.0
  0
SPLINE
  5
1B647
330
1B61C
100
AcDbEntity
  8
0
100
AcDbSpline
210
0.0
220
0.0
230
1.0
 70
     8
 71
     3
 72
     8
 73
     4
 74
     0
 42
0.000000001
 43
0.0000000001
 40
0.0
 40
0.0
 40
0.0
 40
0.0
 40
0.014429570401408
 40
0.014429570401408
 40
0.014429570401408
 40
0.014429570401408
 10
1.234172743127449
 20
-41.09353901830416
 30
0.0
 10
1.194044424714605
 20
-41.11977587510847
 30
0.0
 10
1.154042104088828
 20
-41.14616030307008
 30
0.0
 10
1.11420511708803
 20
-41.17271829440394
 30
0.0
  0
SPLINE
  5
1B648
330
1B61C
100
AcDbEntity
  8
0
100
AcDbSpline
210
0.0
220
0.0
230
1.0
 70
     8
 71
     3
 72
     8
 73
     4
 74
     0
 42
0.000000001
 43
0.0000000001
 40
0.0
 40
0.0
 40
0.0
 40
0.0
 40
0.0807584935124412
 40
0.0807584935124412
 40
0.0807584935124412
 40
0.0807584935124412
 10
1.808497230171396
 20
-38.0351428141756
 30
0.0
 10
1.579695779177471
 20
-38.17662214533047
 30
0.0
 10
1.351913838493426
 20
-38.32004830060086
 30
0.0
 10
1.128736180807744
 20
-38.46845072431397
 30
0.0
  0
SPLINE
  5
1B649
330
1B61C
100
AcDbEntity
  8
0
100
AcDbSpline
210
0.0
220
0.0
230
1.0
 70
     8
 71
     3
 72
     8
 73
     4
 74
     0
 42
0.000000001
 43
0.0000000001
 40
0.0280827899050336
 40
0.0280827899050336
 40
0.0280827899050336
 40
0.0280827899050336
 40
0.0855452266943992
 40
0.0855452266943992
 40
0.0855452266943992
 40
0.0855452266943992
 10
-1.043116982959642
 20
-39.87291622697615
 30
0.0
 10
-1.200911308518575
 20
-39.76614944099051
 30
0.0
 10
-1.362046549058432
 20
-39.66252142186853
 30
0.0
 10
-1.523730242835356
 20
-39.56033540971256
 30
0.0
  0
SPLINE
  5
1B64A
330
1B61C
100
AcDbEntity
  8
0
100
AcDbSpline
210
0.0
220
0.0
230
1.0
 70
     8
 71
     3
 72
    10
 73
     6
 74
     0
 42
0.000000001
 43
0.0000000001
 40
-0.1116990019949009
 40
-0.1116990019949009
 40
-0.1116990019949009
 40
-0.1116990019949009
 40
-0.0587539721768653
 40
-0.0587539721768653
 40
-0.0326200543750029
 40
-0.0326200543750029
 40
-0.0326200543750029
 40
-0.0326200543750029
 10
1.938623515616534
 20
-37.75555490197623
 30
0.0
 10
1.794632524627492
 20
-37.66258992130797
 30
0.0
 10
1.64993475799835
 20
-37.56733157400928
 30
0.0
 10
1.438158761777573
 20
-37.42353037833551
 30
0.0
 10
1.368924536822135
 20
-37.37579286154615
 30
0.0
 10
1.299999890133441
 20
-37.32739620088248
 30
0.0
  0
SPLINE
  5
1B64B
330
1B61C
100
AcDbEntity
  8
0
100
AcDbSpline
210
0.0
220
0.0
230
1.0
 70
     8
 71
     3
 72
     8
 73
     4
 74
     0
 42
0.000000001
 43
0.0000000001
 40
1.932202674377869
 40
1.932202674377869
 40
1.932202674377869
 40
1.932202674377869
 40
2.019685653931942
 40
2.019685653931942
 40
2.019685653931942
 40
2.019685653931942
 10
1.077597015682131
 20
-39.70336842535134
 30
0.0
 10
1.016220585756345
 20
-40.00505073796578
 30
0.0
 10
0.9509941774656077
 20
-40.30973032050282
 30
0.0
 10
0.8837812399794875
 20
-40.61588251955804
 30
0.0
  0
SPLINE
  5
1B64C
330
1B61C
100
AcDbEntity
  8
0
100
AcDbSpline
210
0.0
220
0.0
230
1.0
 70
     8
 71
     3
 72
    10
 73
     6
 74
     0
 42
0.000000001
 43
0.0000000001
 40
-0.0900921038043046
 40
-0.0900921038043046
 40
-0.0900921038043046
 40
-0.0900921038043046
 40
-0.042452622727719
 40
-0.042452622727719
 40
-0.0274778096442149
 40
-0.0274778096442149
 40
-0.0274778096442149
 40
-0.0274778096442149
 10
1.422279601930998
 20
-40.90997666420483
 30
0.0
 10
1.290103233970416
 20
-40.83642155210587
 30
0.0
 10
1.151008519604174
 20
-40.75957462936613
 30
0.0
 10
0.9790636291546601
 20
-40.66664911171757
 30
0.0
 10
0.9324680621140103
 20
-40.64163180210086
 30
0.0
 10
0.8837812399794875
 20
-40.61588251955804
 30
0.0
  0
SPLINE
  5
1B64D
330
1B61C
100
AcDbEntity
  8
0
100
AcDbSpline
210
0.0
220
0.0
230
1.0
 70
     8
 71
     3
 72
     8
 73
     4
 74
     0
 42
0.000000001
 43
0.0000000001
 40
2.099838055223549
 40
2.099838055223549
 40
2.099838055223549
 40
2.099838055223549
 40
2.443592656319528
 40
2.443592656319528
 40
2.443592656319528
 40
2.443592656319528
 10
0.6955532740123759
 20
-41.45987183529904
 30
0.0
 10
0.4232674335498621
 20
-42.66837272576659
 30
0.0
 10
0.1409316767693162
 20
-43.87715458019657
 30
0.0
 10
-0.0000000000000003
 20
-45.0
 30
0.0
  0
LINE
  5
1B64E
330
1B61C
100
AcDbEntity
  8
0
100
AcDbLine
 10
1.455377343266597
 20
-3.795897994836174
 30
0.0
 11
1.880156143748683
 21
-3.795897994836174
 31
0.0
  0
LINE
  5
1B64F
330
1B61C
100
AcDbEntity
  8
0
100
AcDbLine
 10
0.0
 20
-3.795897994836174
 30
0.0
 11
0.3631484389423507
 21
-3.795897994836174
 31
0.0
  0
LINE
  5
1B650
330
1B61C
100
AcDbEntity
  8
0
100
AcDbLine
 10
-1.880156143748684
 20
-3.795897994836174
 30
0.0
 11
-1.455377343266597
 21
-3.795897994836174
 31
0.0
  0
LINE
  5
1B651
330
1B61C
100
AcDbEntity
  8
0
100
AcDbLine
 10
-0.3631484389423514
 20
-3.795897994836174
 30
0.0
 11
0.0
 21
-3.795897994836174
 31
0.0
  0
SPLINE
  5
1B652
330
1B61C
100
AcDbEntity
  8
0
100
AcDbSpline
210
0.0
220
0.0
230
1.0
 70
    12
 71
     2
 72
     6
 73
     3
 74
     0
 42
0.000000001
 43
0.0000000001
 40
0.0
 40
0.0
 40
0.0
 40
0.3870045666688413
 40
0.3870045666688413
 40
0.3870045666688413
 10
0.3390746133802251
 20
-0.4999999999999994
 30
0.0
 41
1.0
 10
0.3455627402188755
 20
-2.926135268864587
 30
0.0
 41
1.126874713456363
 10
0.3631484389423514
 20
-3.795897994836174
 30
0.0
 41
1.0
  0
ELLIPSE
  5
1B653
330
1B61C
100
AcDbEntity
  8
0
100
AcDbEllipse
 10
-0.0000000000000003
 20
-6.894299426916278
 30
0.0
 11
-2.822085883389688
 21
-8.851546759612384
 31
0.0
210
0.0
220
0.0
230
1.0
 40
0.2338828441702473
 41
3.982449305349748
 42
4.079479951042188
  0
LINE
  5
1B654
330
1B61C
100
AcDbEntity
  8
0
100
AcDbLine
 10
0.0
 20
-1.126477935952966
 30
0.0
 11
0.0
 21
-3.795897994836174
 31
0.0
  0
SPLINE
  5
1B655
330
1B61C
100
AcDbEntity
  8
0
100
AcDbSpline
210
0.0
220
0.0
230
1.0
 70
    12
 71
     2
 72
     6
 73
     3
 74
     0
 42
0.000000001
 43
0.0000000001
 40
0.0
 40
0.0
 40
0.0
 40
0.3870045666688413
 40
0.3870045666688413
 40
0.3870045666688413
 10
1.455377343266597
 20
-3.795897994836174
 30
0.0
 41
1.0
 10
2.003732510604882
 20
-2.926135268864555
 30
0.0
 41
1.126874713456468
 10
3.483536766931139
 20
-0.4999999999999999
 30
0.0
 41
1.0
  0
LINE
  5
1B656
330
1B61C
100
AcDbEntity
  8
0
100
AcDbLine
 10
3.5
 20
-1.126477935952967
 30
0.0
 11
1.880156143748683
 21
-3.795897994836174
 31
0.0
  0
ELLIPSE
  5
1B657
330
1B61C
100
AcDbEntity
  8
0
100
AcDbEllipse
 10
-0.0000000000000003
 20
-6.89429942691628
 30
0.0
 11
-2.474873734152916
 21
-8.849092731137776
 31
0.0
210
0.0
220
0.0
230
1.0
 40
0.2796754208987378
 41
2.356194490192345
 42
2.453225135884786
  0
ELLIPSE
  5
1B658
330
1B61C
100
AcDbEntity
  8
0
100
AcDbEllipse
 10
-0.0000000000000003
 20
-6.89429942691628
 30
0.0
 11
2.822085883389686
 21
-8.851546759612388
 31
0.0
210
0.0
220
0.0
230
0.9999999999999998
 40
0.2338828441702476
 41
2.203705356137398
 42
2.300736001829839
  0
SPLINE
  5
1B659
330
1B61C
100
AcDbEntity
  8
0
100
AcDbSpline
210
0.0
220
0.0
230
1.0
 70
    12
 71
     2
 72
     6
 73
     3
 74
     0
 42
0.000000001
 43
0.0000000001
 40
0.0
 40
0.0
 40
0.0
 40
0.3870045666688413
 40
0.3870045666688413
 40
0.3870045666688413
 10
-0.3631484389423517
 20
-3.795897994836174
 30
0.0
 41
1.0
 10
-0.345562740218893
 20
-2.926135268866117
 30
0.0
 41
1.126874713457916
 10
-0.3390746133802238
 20
-0.4999999999999994
 30
0.0
 41
1.0
  0
LINE
  5
1B65A
330
1B61C
100
AcDbEntity
  8
0
100
AcDbLine
 10
-3.5
 20
-1.126477935952967
 30
0.0
 11
-1.880156143748684
 21
-3.795897994836174
 31
0.0
  0
SPLINE
  5
1B65B
330
1B61C
100
AcDbEntity
  8
0
100
AcDbSpline
210
0.0
220
0.0
230
1.0
 70
    12
 71
     2
 72
     6
 73
     3
 74
     0
 42
0.000000001
 43
0.0000000001
 40
0.0
 40
0.0
 40
0.0
 40
0.3870045666688413
 40
0.3870045666688413
 40
0.3870045666688413
 10
-3.483536766931139
 20
-0.5000000000000001
 30
0.0
 41
1.0
 10
-2.003732510604862
 20
-2.926135268864588
 30
0.0
 41
1.126874713456435
 10
-1.455377343266597
 20
-3.795897994836174
 30
0.0
 41
1.0
  0
ELLIPSE
  5
1B65C
330
1B61C
100
AcDbEntity
  8
0
100
AcDbEllipse
 10
-0.0000000000000003
 20
-6.894299426916278
 30
0.0
 11
2.474873734152915
 21
-8.849092731137774
 31
0.0
210
0.0
220
0.0
230
1.0
 40
0.2796754208987378
 41
3.829960171294802
 42
3.926990816987242
  0
LINE
  5
1B65D
330
1B61C
100
AcDbEntity
  8
0
100
AcDbLine
 10
1.438497223042302
 20
-23.25
 30
0.0
 11
0.890498280930948
 21
-23.7118802153517
 31
0.0
  0
LINE
  5
1B65E
330
1B61C
100
AcDbEntity
  8
0
100
AcDbLine
 10
0.890498280930948
 20
-22.7881197846483
 30
0.0
 11
1.438497223042302
 21
-23.25
 31
0.0
  0
SPLINE
  5
1B65F
330
1B61C
100
AcDbEntity
  8
0
100
AcDbSpline
210
0.0
220
0.0
230
1.0
 70
     8
 71
     3
 72
    11
 73
     7
 74
     0
 42
0.000000001
 43
0.0000000001
 40
0.0
 40
0.0
 40
0.0
 40
0.0
 40
1.112617358101977
 40
1.112617358101977
 40
1.112617358101977
 40
1.125568567015209
 40
1.125568567015209
 40
1.125568567015209
 40
1.125568567015209
 10
1.438497223042302
 20
-23.25
 30
0.0
 10
1.94410624433063
 20
-23.07292144768823
 30
0.0
 10
2.034006106789263
 20
-22.89584289537645
 30
0.0
 10
1.74954056678051
 20
-22.71876434306467
 30
0.0
 10
1.746229300233713
 20
-22.71670309414711
 30
0.0
 10
1.742871317593069
 20
-22.71464184522956
 30
0.0
 10
1.739467232705049
 20
-22.712580596312
 30
0.0
  0
SPLINE
  5
1B660
330
1B61C
100
AcDbEntity
  8
0
100
AcDbSpline
210
0.0
220
0.0
230
1.0
 70
     8
 71
     3
 72
     8
 73
     4
 74
     0
 42
0.000000001
 43
0.0000000001
 40
0.3817623233111492
 40
0.3817623233111492
 40
0.3817623233111492
 40
0.3817623233111492
 40
0.4001345392528871
 40
0.4001345392528871
 40
0.4001345392528871
 40
0.4001345392528871
 10
1.003628288522134
 20
-23.63314798625269
 30
0.0
 10
0.968573336351856
 20
-23.65936341667442
 30
0.0
 10
0.9307943505862327
 20
-23.68558978819042
 30
0.0
 10
0.890498280930948
 20
-23.7118802153517
 30
0.0
  0
SPLINE
  5
1B661
330
1B61C
100
AcDbEntity
  8
0
100
AcDbSpline
210
0.0
220
0.0
230
1.0
 70
     8
 71
     3
 72
    12
 73
     8
 74
     0
 42
0.000000001
 43
0.0000000001
 40
0.0
 40
0.0
 40
0.0
 40
0.0
 40
0.054208008631754
 40
0.054208008631754
 40
0.1084160172635078
 40
0.1084160172635078
 40
0.1099760673911229
 40
0.1099760673911229
 40
0.1099760673911229
 40
0.1099760673911229
 10
0.890498280930948
 20
-22.7881197846483
 30
0.0
 10
1.017929134082016
 20
-22.74277640332906
 30
0.0
 10
1.119878011859756
 20
-22.69788847673876
 30
0.0
 10
1.260572180813029
 20
-22.60720171410029
 30
0.0
 10
1.297881126200933
 20
-22.56231378750999
 30
0.0
 10
1.299970796112413
 20
-22.51566547082053
 30
0.0
 10
1.299999999956508
 20
-22.51436091267091
 30
0.0
 10
1.299999999055211
 20
-22.51305671002986
 30
0.0
  0
SPLINE
  5
1B662
330
1B61C
100
AcDbEntity
  8
0
100
AcDbSpline
210
0.0
220
0.0
230
1.0
 70
     8
 71
     3
 72
     8
 73
     4
 74
     0
 42
0.000000001
 43
0.0000000001
 40
0.0
 40
0.0
 40
0.0
 40
0.0
 40
0.0957336262183904
 40
0.0957336262183904
 40
0.0957336262183904
 40
0.0957336262183904
 10
1.784905696544887
 20
-23.09293504240507
 30
0.0
 10
1.518607628251094
 20
-23.26693026946049
 30
0.0
 10
1.254704368314573
 20
-23.44538295848289
 30
0.0
 10
1.003628409581396
 20
-23.63314807380953
 30
0.0
  0
SPLINE
  5
1B663
330
1B61C
100
AcDbEntity
  8
0
100
AcDbSpline
210
0.0
220
0.0
230
1.0
 70
     8
 71
     3
 72
     8
 73
     4
 74
     0
 42
0.000000001
 43
0.0000000001
 40
0.0134916393902372
 40
0.0134916393902372
 40
0.0134916393902372
 40
0.0134916393902372
 40
0.0650958970738
 40
0.0650958970738
 40
0.0650958970738
 40
0.0650958970738
 10
1.299999999999998
 20
-22.44257301488861
 30
0.0
 10
1.44570369274334
 20
-22.53367719085602
 30
0.0
 10
1.592410075450459
 20
-22.62344221414431
 30
0.0
 10
1.739472406064272
 20
-22.712580596312
 30
0.0
  0
SPLINE
  5
1B664
330
1B61C
100
AcDbEntity
  8
0
100
AcDbSpline
210
0.0
220
0.0
230
1.0
 70
     8
 71
     3
 72
    17
 73
    13
 74
     0
 42
0.000000001
 43
0.0000000001
 40
1.195640676598212
 40
1.195640676598212
 40
1.195640676598212
 40
1.195640676598212
 40
2.254113738725071
 40
2.254113738725071
 40
2.254113738725071
 40
3.378538357417297
 40
3.378538357417297
 40
3.378538357417297
 40
4.501313958143737
 40
4.501313958143737
 40
4.501313958143737
 40
5.087544630581372
 40
5.087544630581372
 40
5.087544630581372
 40
5.087544630581372
 10
-1.953508171447869
 20
-36.53941948808042
 30
0.0
 10
-2.220721198140824
 20
-36.37095826811331
 30
0.0
 10
-2.096314225242772
 20
-36.20249704814622
 30
0.0
 10
-1.628513204684695
 20
-36.03403582817911
 30
0.0
 10
-1.13156434222814
 20
-35.85507809198002
 30
0.0
 10
-0.2721622954695475
 20
-35.67612035578094
 30
0.0
 10
0.4929430137463572
 20
-35.49716261958185
 30
0.0
 10
1.256926262506058
 20
-35.31846733274327
 30
0.0
 10
1.888729294284756
 20
-35.13977204590468
 30
0.0
 10
2.053393126253308
 20
-34.96107675906609
 30
0.0
 10
2.139368443920192
 20
-34.86777524975555
 30
0.0
 10
2.095786154804718
 20
-34.77447374044502
 30
0.0
 10
1.946043508762305
 20
-34.68117223113449
 30
0.0
  0
SPLINE
  5
1B665
330
1B61C
100
AcDbEntity
  8
0
100
AcDbSpline
210
0.0
220
0.0
230
1.0
 70
     8
 71
     3
 72
    20
 73
    16
 74
     0
 42
0.000000001
 43
0.0000000001
 40
7.478825983777799
 40
7.478825983777799
 40
7.478825983777799
 40
7.478825983777799
 40
7.860520111508397
 40
7.860520111508397
 40
7.860520111508397
 40
8.977467857561258
 40
8.977467857561258
 40
8.977467857561258
 40
10.09314566685298
 40
10.09314566685298
 40
10.09314566685298
 40
11.20762654771187
 40
11.20762654771187
 40
11.20762654771187
 40
11.37072993776096
 40
11.37072993776096
 40
11.37072993776096
 40
11.37072993776096
 10
-1.94805998453715
 20
-33.53941948808043
 30
0.0
 10
-2.047770200000782
 20
-33.47867098090295
 30
0.0
 10
-2.101702087374574
 20
-33.41792247372547
 30
0.0
 10
-2.09995511088704
 20
-33.357173966548
 30
0.0
 10
-2.094842950891913
 20
-33.17940621158834
 30
0.0
 10
-1.613276787449362
 20
-33.00163845662868
 30
0.0
 10
-0.9083378926752688
 20
-32.82387070166901
 30
0.0
 10
-0.2042004927069887
 20
-32.6463050634223
 30
0.0
 10
0.6884465273546338
 20
-32.46873942517559
 30
0.0
 10
1.301382039291071
 20
-32.29117378692887
 30
0.0
 10
1.913659977924873
 20
-32.11379864575877
 30
0.0
 10
2.217154914284646
 20
-31.93642350458866
 30
0.0
 10
2.052962187063655
 20
-31.75904836341856
 30
0.0
 10
2.02893271209365
 20
-31.7330896526572
 30
0.0
 10
1.995029074591288
 20
-31.70713094189584
 30
0.0
 10
1.952287228545319
 20
-31.68117223113448
 30
0.0
  0
SPLINE
  5
1B666
330
1B61C
100
AcDbEntity
  8
0
100
AcDbSpline
210
0.0
220
0.0
230
1.0
 70
     8
 71
     3
 72
    17
 73
    13
 74
     0
 42
0.000000001
 43
0.0000000001
 40
13.76201129095738
 40
13.76201129095738
 40
13.76201129095738
 40
13.76201129095738
 40
14.61491067966716
 40
14.61491067966716
 40
14.61491067966716
 40
15.74254395427244
 40
15.74254395427244
 40
15.74254395427244
 40
16.86666666943809
 40
16.86666666943809
 40
16.86666666943809
 40
17.65391524494054
 40
17.65391524494054
 40
17.65391524494054
 40
17.65391524494054
 10
-1.949167908655017
 20
-30.53941948808042
 30
0.0
 10
-2.161311668677747
 20
-30.40367633440721
 30
0.0
 10
-2.139372865417672
 20
-30.26793318073399
 30
0.0
 10
-1.864872573366387
 20
-30.13219002706077
 30
0.0
 10
-1.501950911909754
 20
-29.95272161741244
 30
0.0
 10
-0.716266412678322
 20
-29.77325320776412
 30
0.0
 10
0.0726049688011396
 20
-29.59378479811578
 30
0.0
 10
0.8590204278302122
 20
-29.41487511135529
 30
0.0
 10
1.609027793761284
 20
-29.23596542459479
 30
0.0
 10
1.924197565978603
 20
-29.05705573783429
 30
0.0
 10
2.144918089523006
 20
-28.93176123560103
 30
0.0
 10
2.144748455326181
 20
-28.80646673336776
 30
0.0
 10
1.948148576646298
 20
-28.68117223113448
 30
0.0
  0
SPLINE
  5
1B667
330
1B61C
100
AcDbEntity
  8
0
100
AcDbSpline
210
0.0
220
0.0
230
1.0
 70
     8
 71
     3
 72
    20
 73
    16
 74
     0
 42
0.000000001
 43
0.0000000001
 40
20.04519659813697
 40
20.04519659813697
 40
20.04519659813697
 40
20.04519659813697
 40
20.22108859509782
 40
20.22108859509782
 40
20.22108859509782
 40
21.36041692750016
 40
21.36041692750016
 40
21.36041692750016
 40
22.49115620308348
 40
22.49115620308348
 40
22.49115620308348
 40
23.61465675023791
 40
23.61465675023791
 40
23.61465675023791
 40
23.93710055212013
 40
23.93710055212013
 40
23.93710055212013
 40
23.93710055212013
 10
-1.952130145423227
 20
-27.53941948808043
 30
0.0
 10
-1.998212934059959
 20
-27.5114254073138
 30
0.0
 10
-2.034074283396612
 20
-27.48343132654718
 30
0.0
 10
-2.058446463460045
 20
-27.45543724578056
 30
0.0
 10
-2.216315586265346
 20
-27.27410750987407
 30
0.0
 10
-1.88252726110498
 20
-27.0927777739676
 30
0.0
 10
-1.238445162386533
 20
-26.91144803806111
 30
0.0
 10
-0.5992186066969745
 20
-26.73148529300388
 30
0.0
 10
0.3121886341969824
 20
-26.55152254794665
 30
0.0
 10
1.006807688776021
 20
-26.37155980288941
 30
0.0
 10
1.696979954598176
 20
-26.19274913724333
 30
0.0
 10
2.138519268018297
 20
-26.01393847159726
 30
0.0
 10
2.097083209561461
 20
-25.83512780595118
 30
0.0
 10
2.085191092323355
 20
-25.78380928101229
 30
0.0
 10
2.033717258477762
 20
-25.73249075607339
 30
0.0
 10
1.949189689355413
 20
-25.68117223113449
 30
0.0
  0
SPLINE
  5
1B668
330
1B61C
100
AcDbEntity
  8
0
100
AcDbSpline
210
0.0
220
0.0
230
1.0
 70
     8
 71
     3
 72
    14
 73
    10
 74
     0
 42
0.000000001
 43
0.0000000001
 40
26.32838190531656
 40
26.32838190531656
 40
26.32838190531656
 40
26.32838190531656
 40
26.99203255855903
 40
26.99203255855903
 40
26.99203255855903
 40
28.1262217907614
 40
28.1262217907614
 40
28.1262217907614
 40
29.02893576608254
 40
29.02893576608254
 40
29.02893576608254
 40
29.02893576608254
 10
-1.946350182224316
 20
-24.53941948808042
 30
0.0
 10
-2.11420022336133
 20
-24.43379620613072
 30
0.0
 10
-2.145384165391756
 20
-24.32817292418101
 30
0.0
 10
-2.013213609454948
 20
-24.2225496422313
 30
0.0
 10
-1.78733208485264
 20
-24.0420378195247
 30
0.0
 10
-1.095139478072349
 20
-23.86152599681809
 30
0.0
 10
-0.3098994317845091
 20
-23.68101417411148
 30
0.0
 10
0.3150819590098806
 20
-23.53734278274099
 30
0.0
 10
0.9781302318482678
 20
-23.3936713913705
 30
0.0
 10
1.438497223042302
 20
-23.25
 30
0.0
  0
SPLINE
  5
1B669
330
1B61C
100
AcDbEntity
  8
0
100
AcDbSpline
210
0.0
220
0.0
230
1.0
 70
     8
 71
     3
 72
    11
 73
     7
 74
     0
 42
0.000000001
 43
0.0000000001
 40
-29.02893576608254
 40
-29.02893576608254
 40
-29.02893576608254
 40
-29.02893576608254
 40
-27.75729896412857
 40
-27.75729896412857
 40
-27.75729896412857
 40
-26.70353755551325
 40
-26.70353755551325
 40
-26.70353755551325
 40
-26.70353755551325
 10
0.890498280930948
 20
-23.7118802153517
 30
0.0
 10
0.4890393198028538
 20
-23.91426749820024
 30
0.0
 10
-0.1635811514744217
 20
-24.11665478104879
 30
0.0
 10
-0.6425962432884429
 20
-24.31904206389734
 30
0.0
 10
-1.03953947198576
 20
-24.48675340091794
 30
0.0
 10
-1.290842629269713
 20
-24.65446473793856
 30
0.0
 10
-1.297435883152699
 20
-24.82217607495915
 30
0.0
  0
SPLINE
  5
1B66A
330
1B61C
100
AcDbEntity
  8
0
100
AcDbSpline
210
0.0
220
0.0
230
1.0
 70
     8
 71
     3
 72
    14
 73
    10
 74
     0
 42
0.000000001
 43
0.0000000001
 40
-22.99536866526734
 40
-22.99536866526734
 40
-22.99536866526734
 40
-22.99536866526734
 40
-22.69253389443139
 40
-22.69253389443139
 40
-22.69253389443139
 40
-21.4312281771739
 40
-21.4312281771739
 40
-21.4312281771739
 40
-20.42035224833366
 40
-20.42035224833366
 40
-20.42035224833366
 40
-20.42035224833366
 10
1.092616899674149
 20
-26.59269630106583
 30
0.0
 10
1.024151160214434
 20
-26.64089395178447
 30
0.0
 10
0.939111411528456
 20
-26.68909160250311
 30
0.0
 10
0.8388596051971195
 20
-26.73728925322175
 30
0.0
 10
0.4213111970600312
 20
-26.93803229287335
 30
0.0
 10
-0.2273505929298812
 20
-27.13877533252496
 30
0.0
 10
-0.6904543788977416
 20
-27.33951837217656
 30
0.0
 10
-1.061609812021113
 20
-27.50040427310409
 30
0.0
 10
-1.2903963449908
 20
-27.66129017403163
 30
0.0
 10
-1.296825575899381
 20
-27.82217607495916
 30
0.0
  0
SPLINE
  5
1B66B
330
1B61C
100
AcDbEntity
  8
0
100
AcDbSpline
210
0.0
220
0.0
230
1.0
 70
     8
 71
     3
 72
    14
 73
    10
 74
     0
 42
0.000000001
 43
0.0000000001
 40
-16.71218335808775
 40
-16.71218335808775
 40
-16.71218335808775
 40
-16.71218335808775
 40
-16.29974957302046
 40
-16.29974957302046
 40
-16.29974957302046
 40
-15.02107227777834
 40
-15.02107227777834
 40
-15.02107227777834
 40
-14.13716694115407
 40
-14.13716694115407
 40
-14.13716694115407
 40
-14.13716694115407
 10
1.090551641585921
 20
-29.59269630106583
 30
0.0
 10
0.9969179895119211
 20
-29.65833717665739
 30
0.0
 10
0.8735267310053785
 20
-29.72397805224895
 30
0.0
 10
0.7251977824397592
 20
-29.78961892784051
 30
0.0
 10
0.2653303670507649
 20
-29.99312673999766
 30
0.0
 10
-0.3959403039892433
 20
-30.19663455215483
 30
0.0
 10
-0.8243771877640304
 20
-30.40014236431198
 30
0.0
 10
-1.120540769759515
 20
-30.54082026786105
 30
0.0
 10
-1.288752715418058
 20
-30.68149817141009
 30
0.0
 10
-1.293873288209912
 20
-30.82217607495916
 30
0.0
  0
SPLINE
  5
1B66C
330
1B61C
100
AcDbEntity
  8
0
100
AcDbSpline
210
0.0
220
0.0
230
1.0
 70
     8
 71
     3
 72
    14
 73
    10
 74
     0
 42
0.000000001
 43
0.0000000001
 40
-10.42899805090816
 40
-10.42899805090816
 40
-10.42899805090816
 40
-10.42899805090816
 40
-9.953022817112866
 40
-9.953022817112866
 40
-9.953022817112866
 40
-8.657288830917334
 40
-8.657288830917334
 40
-8.657288830917334
 40
-7.853981633974481
 40
-7.853981633974481
 40
-7.853981633974481
 40
-7.853981633974481
 10
1.090217265859812
 20
-32.59269630106583
 30
0.0
 10
0.9813603540488752
 20
-32.66845011231367
 30
0.0
 10
0.8333654889269507
 20
-32.74420392356152
 30
0.0
 10
0.6552236768620591
 20
-32.81995773480936
 30
0.0
 10
0.1702732343476345
 20
-33.02618020364454
 30
0.0
 10
-0.4985535783986936
 20
-33.23240267247973
 30
0.0
 10
-0.9026296053734114
 20
-33.43862514131492
 30
0.0
 10
-1.153141812384304
 20
-33.56647545252966
 30
0.0
 10
-1.288797295212144
 20
-33.69432576374442
 30
0.0
 10
-1.292240326362875
 20
-33.82217607495916
 30
0.0
  0
SPLINE
  5
1B66D
330
1B61C
100
AcDbEntity
  8
0
100
AcDbSpline
210
0.0
220
0.0
230
1.0
 70
     8
 71
     3
 72
    14
 73
    10
 74
     0
 42
0.000000001
 43
0.0000000001
 40
-4.14581274372858
 40
-4.14581274372858
 40
-4.14581274372858
 40
-4.14581274372858
 40
-3.54500540208927
 40
-3.54500540208927
 40
-3.54500540208927
 40
-2.274588173678959
 40
-2.274588173678959
 40
-2.274588173678959
 40
-1.570796326794894
 40
-1.570796326794894
 40
-1.570796326794894
 40
-1.570796326794894
 10
1.089010620554892
 20
-35.59269630106583
 30
0.0
 10
0.9501471164032494
 20
-35.68831775933362
 30
0.0
 10
0.7497779359072604
 20
-35.78393921760142
 30
0.0
 10
0.5103272433810393
 20
-35.87956067586922
 30
0.0
 10
0.0040047268983491
 20
-36.08175385755983
 30
0.0
 10
-0.6348671265663071
 20
-36.28394703925044
 30
0.0
 10
-0.9911120957725145
 20
-36.48614022094104
 30
0.0
 10
-1.18846639734675
 20
-36.59815217228042
 30
0.0
 10
-1.289925252973599
 20
-36.71016412361979
 30
0.0
 10
-1.291129184932279
 20
-36.82217607495916
 30
0.0
  0
SPLINE
  5
1B66E
330
1B61C
100
AcDbEntity
  8
0
100
AcDbSpline
210
0.0
220
0.0
230
1.0
 70
     8
 71
     3
 72
    14
 73
    10
 74
     0
 42
0.000000001
 43
0.0000000001
 40
2.137372563451011
 40
2.137372563451011
 40
2.137372563451011
 40
2.137372563451011
 40
2.540981518021434
 40
2.540981518021434
 40
2.540981518021434
 40
3.80814899449357
 40
3.80814899449357
 40
3.80814899449357
 40
4.712388980384693
 40
4.712388980384693
 40
4.712388980384693
 40
4.712388980384693
 10
-1.090897476205497
 20
-35.62789541814909
 30
0.0
 10
-0.9992162413088328
 20
-35.56365905795305
 30
0.0
 10
-0.878979307927227
 20
-35.49942269775702
 30
0.0
 10
-0.73469078783168
 20
-35.43518633756098
 30
0.0
 10
-0.281683693160118
 20
-35.23351036995516
 30
0.0
 10
0.3721952291475095
 20
-35.03183440234933
 30
0.0
 10
0.8037680244034916
 20
-34.83015843474351
 30
0.0
 10
1.111734718261296
 20
-34.68624417124759
 30
0.0
 10
1.289083782795347
 20
-34.54232990775167
 30
0.0
 10
1.294521811960973
 20
-34.39841564425576
 30
0.0
  0
SPLINE
  5
1B66F
330
1B61C
100
AcDbEntity
  8
0
100
AcDbSpline
210
0.0
220
0.0
230
1.0
 70
     8
 71
     3
 72
    14
 73
    10
 74
     0
 42
0.000000001
 43
0.0000000001
 40
8.420557870630597
 40
8.420557870630597
 40
8.420557870630597
 40
8.420557870630597
 40
8.857276931822699
 40
8.857276931822699
 40
8.857276931822699
 40
10.15442361348757
 40
10.15442361348757
 40
10.15442361348757
 40
10.99557428756428
 40
10.99557428756428
 40
10.99557428756428
 40
10.99557428756428
 10
-1.090629106911126
 20
-32.62789541814908
 30
0.0
 10
-0.9910886755362826
 20
-32.55838942081791
 30
0.0
 10
-0.8583646156551205
 20
-32.48888342348673
 30
0.0
 10
-0.6987844237342676
 20
-32.41937742615556
 30
0.0
 10
-0.2247979761435956
 20
-32.21293011985334
 30
0.0
 10
0.4475941881912077
 20
-32.00648281355113
 30
0.0
 10
0.8665872054040978
 20
-31.80003550724892
 30
0.0
 10
1.138288365992745
 20
-31.66616221958453
 30
0.0
 10
1.288307333830918
 20
-31.53228893192014
 30
0.0
 10
1.292571258630172
 20
-31.39841564425575
 30
0.0
  0
SPLINE
  5
1B670
330
1B61C
100
AcDbEntity
  8
0
100
AcDbSpline
210
0.0
220
0.0
230
1.0
 70
     8
 71
     3
 72
    14
 73
    10
 74
     0
 42
0.000000001
 43
0.0000000001
 40
14.70374317781018
 40
14.70374317781018
 40
14.70374317781018
 40
14.70374317781018
 40
15.28140687981719
 40
15.28140687981719
 40
15.28140687981719
 40
16.55029276230431
 40
16.55029276230431
 40
16.55029276230431
 40
17.27875959474386
 40
17.27875959474386
 40
17.27875959474386
 40
17.27875959474386
 10
-1.089471629458225
 20
-29.62789541814908
 30
0.0
 10
-0.9561166305308875
 20
-29.53595738452991
 30
0.0
 10
-0.7657508300178244
 20
-29.44401935091073
 30
0.0
 10
-0.5378596751466178
 20
-29.35208131729155
 30
0.0
 10
-0.0372779904136307
 20
-29.15013185687421
 30
0.0
 10
0.6040047212095291
 20
-28.94818239645685
 30
0.0
 10
0.9700547337408455
 20
-28.74623293603951
 30
0.0
 10
1.180203886492453
 20
-28.63029383877826
 30
0.0
 10
1.290085463366024
 20
-28.51435474151701
 30
0.0
 10
1.291977740174916
 20
-28.39841564425576
 30
0.0
  0
SPLINE
  5
1B671
330
1B61C
100
AcDbEntity
  8
0
100
AcDbSpline
210
0.0
220
0.0
230
1.0
 70
     8
 71
     3
 72
    14
 73
    10
 74
     0
 42
0.000000001
 43
0.0000000001
 40
20.98692848498977
 40
20.98692848498977
 40
20.98692848498977
 40
20.98692848498977
 40
21.65473289702302
 40
21.65473289702302
 40
21.65473289702302
 40
22.92724121795464
 40
22.92724121795464
 40
22.92724121795464
 40
23.56194490192345
 40
23.56194490192345
 40
23.56194490192345
 40
23.56194490192345
 10
-1.08946198160175
 20
-26.62789541814908
 30
0.0
 10
-0.9339360072295503
 20
-26.52161104495541
 30
0.0
 10
-0.7022978670485531
 20
-26.41532667176174
 30
0.0
 10
-0.4291375672673718
 20
-26.30904229856807
 30
0.0
 10
0.0913722529079748
 20
-26.10651630916624
 30
0.0
 10
0.7198631101034257
 20
-25.90399031976441
 30
0.0
 10
1.046821657873943
 20
-25.70146433036257
 30
0.0
 10
1.209902552011524
 20
-25.6004481016603
 30
0.0
 10
1.291541650816756
 20
-25.49943187295803
 30
0.0
 10
1.291590651081411
 20
-25.39841564425576
 30
0.0
  0
SPLINE
  5
1B672
330
1B61C
100
AcDbEntity
  8
0
100
AcDbSpline
210
0.0
220
0.0
230
1.0
 70
     8
 71
     3
 72
    11
 73
     7
 74
     0
 42
0.000000001
 43
0.0000000001
 40
27.27011379216935
 40
27.27011379216935
 40
27.27011379216935
 40
27.27011379216935
 40
28.04151139278067
 40
28.04151139278067
 40
28.04151139278067
 40
29.02893576608254
 40
29.02893576608254
 40
29.02893576608254
 40
29.02893576608254
 10
-1.090323898819802
 20
-23.62789541814909
 30
0.0
 10
-0.9090046608611618
 20
-23.50512367692257
 30
0.0
 10
-0.6251955181870396
 20
-23.38235193569605
 30
0.0
 10
-0.29994220750604
 20
-23.25958019446952
 30
0.0
 10
0.1163969750491357
 20
-23.10242672452912
 30
0.0
 10
0.5787659038172868
 20
-22.94527325458871
 30
0.0
 10
0.890498280930948
 20
-22.7881197846483
 30
0.0
  0
SPLINE
  5
1B673
330
1B61C
100
AcDbEntity
  8
0
100
AcDbSpline
210
0.0
220
0.0
230
1.0
 70
     8
 71
     3
 72
     8
 73
     4
 74
     0
 42
0.000000001
 43
0.0000000001
 40
0.0
 40
0.0
 40
0.0
 40
0.0
 40
0.1022664355129522
 40
0.1022664355129522
 40
0.1022664355129522
 40
0.1022664355129522
 10
1.953946260524278
 20
-35.03941948808043
 30
0.0
 10
1.664517150202419
 20
-35.21901201530412
 30
0.0
 10
1.376276384325976
 20
-35.40150402532672
 30
0.0
 10
1.096866692399527
 20
-35.59269630106583
 30
0.0
  0
SPLINE
  5
1B674
330
1B61C
100
AcDbEntity
  8
0
100
AcDbSpline
210
0.0
220
0.0
230
1.0
 70
     8
 71
     3
 72
     8
 73
     4
 74
     0
 42
0.000000001
 43
0.0000000001
 40
0.0
 40
0.0
 40
0.0
 40
0.0
 40
0.1022664355129522
 40
0.1022664355129522
 40
0.1022664355129522
 40
0.1022664355129522
 10
1.953946260524279
 20
-32.03941948808043
 30
0.0
 10
1.664517150202419
 20
-32.21901201530412
 30
0.0
 10
1.376276384325976
 20
-32.40150402532671
 30
0.0
 10
1.096866692399528
 20
-32.59269630106583
 30
0.0
  0
SPLINE
  5
1B675
330
1B61C
100
AcDbEntity
  8
0
100
AcDbSpline
210
0.0
220
0.0
230
1.0
 70
     8
 71
     3
 72
     8
 73
     4
 74
     0
 42
0.000000001
 43
0.0000000001
 40
0.0
 40
0.0
 40
0.0
 40
0.0
 40
0.1022664355129522
 40
0.1022664355129522
 40
0.1022664355129522
 40
0.1022664355129522
 10
1.953946260524277
 20
-29.03941948808043
 30
0.0
 10
1.664517150202418
 20
-29.21901201530412
 30
0.0
 10
1.376276384325975
 20
-29.40150402532671
 30
0.0
 10
1.096866692399526
 20
-29.59269630106583
 30
0.0
  0
SPLINE
  5
1B676
330
1B61C
100
AcDbEntity
  8
0
100
AcDbSpline
210
0.0
220
0.0
230
1.0
 70
     8
 71
     3
 72
     8
 73
     4
 74
     0
 42
0.000000001
 43
0.0000000001
 40
0.0
 40
0.0
 40
0.0
 40
0.0
 40
0.1022664355129525
 40
0.1022664355129525
 40
0.1022664355129525
 40
0.1022664355129525
 10
1.953946260524277
 20
-26.03941948808043
 30
0.0
 10
1.664517150202417
 20
-26.21901201530412
 30
0.0
 10
1.376276384325975
 20
-26.40150402532672
 30
0.0
 10
1.096866692399526
 20
-26.59269630106583
 30
0.0
  0
SPLINE
  5
1B677
330
1B61C
100
AcDbEntity
  8
0
100
AcDbSpline
210
0.0
220
0.0
230
1.0
 70
     8
 71
     3
 72
     8
 73
     4
 74
     0
 42
0.000000001
 43
0.0000000001
 40
0.0246086974470664
 40
0.0246086974470664
 40
0.0246086974470664
 40
0.0246086974470664
 40
0.1022664355129521
 40
0.1022664355129521
 40
0.1022664355129521
 40
0.1022664355129521
 10
-1.299999999999999
 20
-24.95610520863326
 30
0.0
 10
-1.515065778031796
 20
-24.81384465302458
 30
0.0
 10
-1.734163397014083
 20
-24.67579609461583
 30
0.0
 10
-1.953946260524277
 20
-24.53941948808042
 30
0.0
  0
SPLINE
  5
1B678
330
1B61C
100
AcDbEntity
  8
0
100
AcDbSpline
210
0.0
220
0.0
230
1.0
 70
     8
 71
     3
 72
     8
 73
     4
 74
     0
 42
0.000000001
 43
0.0000000001
 40
0.0246086974470669
 40
0.0246086974470669
 40
0.0246086974470669
 40
0.0246086974470669
 40
0.1022664355129527
 40
0.1022664355129527
 40
0.1022664355129527
 40
0.1022664355129527
 10
-1.299999999999999
 20
-27.95610520863327
 30
0.0
 10
-1.515065778031796
 20
-27.81384465302459
 30
0.0
 10
-1.734163397014083
 20
-27.67579609461583
 30
0.0
 10
-1.953946260524277
 20
-27.53941948808042
 30
0.0
  0
SPLINE
  5
1B679
330
1B61C
100
AcDbEntity
  8
0
100
AcDbSpline
210
0.0
220
0.0
230
1.0
 70
     8
 71
     3
 72
     8
 73
     4
 74
     0
 42
0.000000001
 43
0.0000000001
 40
0.0246086974470666
 40
0.0246086974470666
 40
0.0246086974470666
 40
0.0246086974470666
 40
0.1022664355129525
 40
0.1022664355129525
 40
0.1022664355129525
 40
0.1022664355129525
 10
-1.299999999999998
 20
-30.95610520863326
 30
0.0
 10
-1.515065778031796
 20
-30.8138446530246
 30
0.0
 10
-1.734163397014083
 20
-30.67579609461583
 30
0.0
 10
-1.953946260524277
 20
-30.53941948808043
 30
0.0
  0
SPLINE
  5
1B67A
330
1B61C
100
AcDbEntity
  8
0
100
AcDbSpline
210
0.0
220
0.0
230
1.0
 70
     8
 71
     3
 72
     8
 73
     4
 74
     0
 42
0.000000001
 43
0.0000000001
 40
0.0246086974470666
 40
0.0246086974470666
 40
0.0246086974470666
 40
0.0246086974470666
 40
0.1022664355129522
 40
0.1022664355129522
 40
0.1022664355129522
 40
0.1022664355129522
 10
-1.299999999999999
 20
-33.95610520863327
 30
0.0
 10
-1.515065778031796
 20
-33.81384465302459
 30
0.0
 10
-1.734163397014083
 20
-33.67579609461583
 30
0.0
 10
-1.953946260524278
 20
-33.53941948808043
 30
0.0
  0
SPLINE
  5
1B67B
330
1B61C
100
AcDbEntity
  8
0
100
AcDbSpline
210
0.0
220
0.0
230
1.0
 70
     8
 71
     3
 72
     8
 73
     4
 74
     0
 42
0.000000001
 43
0.0000000001
 40
0.0246086974470665
 40
0.0246086974470665
 40
0.0246086974470665
 40
0.0246086974470665
 40
0.1022664355129522
 40
0.1022664355129522
 40
0.1022664355129522
 40
0.1022664355129522
 10
-1.299999999999998
 20
-36.95610520863326
 30
0.0
 10
-1.515065778031796
 20
-36.81384465302458
 30
0.0
 10
-1.734163397014083
 20
-36.67579609461583
 30
0.0
 10
-1.953946260524278
 20
-36.53941948808043
 30
0.0
  0
SPLINE
  5
1B67C
330
1B61C
100
AcDbEntity
  8
0
100
AcDbSpline
210
0.0
220
0.0
230
1.0
 70
     8
 71
     3
 72
     8
 73
     4
 74
     0
 42
0.000000001
 43
0.0000000001
 40
0.0
 40
0.0
 40
0.0
 40
0.0
 40
0.1022664355129524
 40
0.1022664355129524
 40
0.1022664355129524
 40
0.1022664355129524
 10
-1.953946260524277
 20
-36.18117223113449
 30
0.0
 10
-1.664517150202418
 20
-36.0015797039108
 30
0.0
 10
-1.376276384325976
 20
-35.8190876938882
 30
0.0
 10
-1.096866692399527
 20
-35.62789541814908
 30
0.0
  0
SPLINE
  5
1B67D
330
1B61C
100
AcDbEntity
  8
0
100
AcDbSpline
210
0.0
220
0.0
230
1.0
 70
     8
 71
     3
 72
     8
 73
     4
 74
     0
 42
0.000000001
 43
0.0000000001
 40
0.0
 40
0.0
 40
0.0
 40
0.0
 40
0.1022664355129522
 40
0.1022664355129522
 40
0.1022664355129522
 40
0.1022664355129522
 10
-1.953946260524277
 20
-33.18117223113449
 30
0.0
 10
-1.664517150202418
 20
-33.00157970391079
 30
0.0
 10
-1.376276384325975
 20
-32.81908769388819
 30
0.0
 10
-1.096866692399527
 20
-32.62789541814908
 30
0.0
  0
SPLINE
  5
1B67E
330
1B61C
100
AcDbEntity
  8
0
100
AcDbSpline
210
0.0
220
0.0
230
1.0
 70
     8
 71
     3
 72
     8
 73
     4
 74
     0
 42
0.000000001
 43
0.0000000001
 40
0.0
 40
0.0
 40
0.0
 40
0.0
 40
0.1022664355129525
 40
0.1022664355129525
 40
0.1022664355129525
 40
0.1022664355129525
 10
-1.953946260524277
 20
-30.18117223113449
 30
0.0
 10
-1.664517150202418
 20
-30.0015797039108
 30
0.0
 10
-1.376276384325976
 20
-29.8190876938882
 30
0.0
 10
-1.096866692399527
 20
-29.62789541814908
 30
0.0
  0
SPLINE
  5
1B67F
330
1B61C
100
AcDbEntity
  8
0
100
AcDbSpline
210
0.0
220
0.0
230
1.0
 70
     8
 71
     3
 72
     8
 73
     4
 74
     0
 42
0.000000001
 43
0.0000000001
 40
0.0
 40
0.0
 40
0.0
 40
0.0
 40
0.1022664355129522
 40
0.1022664355129522
 40
0.1022664355129522
 40
0.1022664355129522
 10
-1.953946260524278
 20
-27.18117223113449
 30
0.0
 10
-1.664517150202418
 20
-27.00157970391079
 30
0.0
 10
-1.376276384325975
 20
-26.8190876938882
 30
0.0
 10
-1.096866692399527
 20
-26.62789541814908
 30
0.0
  0
SPLINE
  5
1B680
330
1B61C
100
AcDbEntity
  8
0
100
AcDbSpline
210
0.0
220
0.0
230
1.0
 70
     8
 71
     3
 72
     8
 73
     4
 74
     0
 42
0.000000001
 43
0.0000000001
 40
0.0
 40
0.0
 40
0.0
 40
0.0
 40
0.1022664355129522
 40
0.1022664355129522
 40
0.1022664355129522
 40
0.1022664355129522
 10
-1.953946260524278
 20
-24.18117223113448
 30
0.0
 10
-1.664517150202419
 20
-24.00157970391079
 30
0.0
 10
-1.376276384325976
 20
-23.81908769388819
 30
0.0
 10
-1.096866692399527
 20
-23.62789541814908
 30
0.0
  0
SPLINE
  5
1B681
330
1B61C
100
AcDbEntity
  8
0
100
AcDbSpline
210
0.0
220
0.0
230
1.0
 70
     8
 71
     3
 72
     8
 73
     4
 74
     0
 42
0.000000001
 43
0.0000000001
 40
0.0246086974470664
 40
0.0246086974470664
 40
0.0246086974470664
 40
0.0246086974470664
 40
0.1022664355129524
 40
0.1022664355129524
 40
0.1022664355129524
 40
0.1022664355129524
 10
1.299999999999997
 20
-34.26448651058164
 30
0.0
 10
1.515065778031795
 20
-34.40674706619032
 30
0.0
 10
1.734163397014082
 20
-34.54479562459908
 30
0.0
 10
1.953946260524277
 20
-34.68117223113449
 30
0.0
  0
SPLINE
  5
1B682
330
1B61C
100
AcDbEntity
  8
0
100
AcDbSpline
210
0.0
220
0.0
230
1.0
 70
     8
 71
     3
 72
     8
 73
     4
 74
     0
 42
0.000000001
 43
0.0000000001
 40
0.0246086974470664
 40
0.0246086974470664
 40
0.0246086974470664
 40
0.0246086974470664
 40
0.1022664355129524
 40
0.1022664355129524
 40
0.1022664355129524
 40
0.1022664355129524
 10
1.299999999999998
 20
-31.26448651058164
 30
0.0
 10
1.515065778031795
 20
-31.40674706619031
 30
0.0
 10
1.734163397014082
 20
-31.54479562459908
 30
0.0
 10
1.953946260524277
 20
-31.68117223113448
 30
0.0
  0
SPLINE
  5
1B683
330
1B61C
100
AcDbEntity
  8
0
100
AcDbSpline
210
0.0
220
0.0
230
1.0
 70
     8
 71
     3
 72
     8
 73
     4
 74
     0
 42
0.000000001
 43
0.0000000001
 40
0.0246086974470665
 40
0.0246086974470665
 40
0.0246086974470665
 40
0.0246086974470665
 40
0.1022664355129522
 40
0.1022664355129522
 40
0.1022664355129522
 40
0.1022664355129522
 10
1.299999999999997
 20
-28.26448651058165
 30
0.0
 10
1.515065778031794
 20
-28.40674706619032
 30
0.0
 10
1.734163397014082
 20
-28.54479562459907
 30
0.0
 10
1.953946260524277
 20
-28.68117223113448
 30
0.0
  0
SPLINE
  5
1B684
330
1B61C
100
AcDbEntity
  8
0
100
AcDbSpline
210
0.0
220
0.0
230
1.0
 70
     8
 71
     3
 72
     8
 73
     4
 74
     0
 42
0.000000001
 43
0.0000000001
 40
0.0246086974470664
 40
0.0246086974470664
 40
0.0246086974470664
 40
0.0246086974470664
 40
0.1022664355129522
 40
0.1022664355129522
 40
0.1022664355129522
 40
0.1022664355129522
 10
1.299999999999997
 20
-25.26448651058164
 30
0.0
 10
1.515065778031794
 20
-25.40674706619033
 30
0.0
 10
1.734163397014082
 20
-25.54479562459909
 30
0.0
 10
1.953946260524277
 20
-25.68117223113449
 30
0.0
  0
SPLINE
  5
1B685
330
1B61C
100
AcDbEntity
  8
0
100
AcDbSpline
210
0.0
220
0.0
230
1.0
 70
     8
 71
     3
 72
    18
 73
    14
 74
     0
 42
0.000000001
 43
0.0000000001
 40
0.0208330284183835
 40
0.0208330284183835
 40
0.0208330284183835
 40
0.0208330284183835
 40
0.0371656662581174
 40
0.0371656662581174
 40
0.0733565709075947
 40
0.0733565709075947
 40
0.1086233849536644
 40
0.1086233849536644
 40
0.1430294179831337
 40
0.1430294179831337
 40
0.1766551463383764
 40
0.1766551463383764
 40
0.1966371631322426
 40
0.1966371631322426
 40
0.1966371631322426
 40
0.1966371631322426
 10
0.4930452212670237
 20
-41.61457907898962
 30
0.0
 10
0.4572077378075767
 20
-41.6434842754692
 30
0.0
 10
0.4186471146545162
 20
-41.67266714685061
 30
0.0
 10
0.287568525307674
 20
-41.76793305037316
 30
0.0
 10
0.1889433698237593
 20
-41.83395339075203
 30
0.0
 10
-0.0067140452100477
 20
-41.96905494348836
 30
0.0
 10
-0.100933522349642
 20
-42.03612528211139
 30
0.0
 10
-0.2670626441369047
 20
-42.17365535117621
 30
0.0
 10
-0.3369619680600114
 20
-42.24197335409576
 30
0.0
 10
-0.4394422016503995
 20
-42.38241595304142
 30
0.0
 10
-0.4711870509320259
 20
-42.45223445841133
 30
0.0
 10
-0.4875534000835065
 20
-42.56817296377561
 30
0.0
 10
-0.4859340909800548
 20
-42.61153083092593
 30
0.0
 10
-0.4769596746040429
 20
-42.65564548457766
 30
0.0
  0
LINE
  5
1B686
330
1B61C
100
AcDbEntity
  8
0
100
AcDbLine
 10
1.007783423763824
 20
-41.24366608995341
 30
0.0
 11
1.207838769282764
 21
-41.11029585960745
 31
0.0
  0
LINE
  5
1B687
330
1B61C
100
AcDbEntity
  8
0
100
AcDbLine
 10
1.207838769282764
 20
-41.11029585960745
 30
0.0
 11
0.7402682263481819
 21
-40.79858216431773
 31
0.0
  0
SPLINE
  5
1B688
330
1B61C
100
AcDbEntity
  8
0
100
AcDbSpline
210
0.0
220
0.0
230
1.0
 70
     8
 71
     3
 72
    16
 73
    12
 74
     0
 42
0.000000001
 43
0.0000000001
 40
0.1932217457263612
 40
0.1932217457263612
 40
0.1932217457263612
 40
0.1932217457263612
 40
0.1966992853871787
 40
0.1966992853871787
 40
0.2380794626733607
 40
0.2380794626733607
 40
0.2804511526679097
 40
0.2804511526679097
 40
0.3129490350336384
 40
0.3129490350336384
 40
0.3464489876903639
 40
0.3464489876903639
 40
0.3464489876903639
 40
0.3464489876903639
 10
-0.3907964574298732
 20
-41.63860658895085
 30
0.0
 10
-0.3839949664324326
 20
-41.63173572927976
 30
0.0
 10
-0.3770448274429369
 20
-41.62486998888974
 30
0.0
 10
-0.2855204999086172
 20
-41.53635000507622
 30
0.0
 10
-0.1832652426025487
 20
-41.4577321891046
 30
0.0
 10
0.0421745339773667
 20
-41.2995092657082
 30
0.0
 10
0.1623246471895994
 20
-41.22231454196816
 30
0.0
 10
0.3680765095960145
 20
-41.08666704805243
 30
0.0
 10
0.4535086529951103
 20
-41.0291649343048
 30
0.0
 10
0.6113980084918259
 20
-40.913202723179
 30
0.0
 10
0.682097234174286
 20
-40.85569834020375
 30
0.0
 10
0.7402682263481807
 20
-40.79858216431773
 30
0.0
  0
SPLINE
  5
1B689
330
1B61C
100
AcDbEntity
  8
0
100
AcDbSpline
210
0.0
220
0.0
230
1.0
 70
     8
 71
     3
 72
    14
 73
    10
 74
     0
 42
0.000000001
 43
0.0000000001
 40
0.0
 40
0.0
 40
0.0
 40
0.0
 40
1.265274109621229
 40
1.265274109621229
 40
1.265274109621229
 40
2.542154505590419
 40
2.542154505590419
 40
2.542154505590419
 40
3.26566730144043
 40
3.26566730144043
 40
3.26566730144043
 40
3.26566730144043
 10
1.207838769282764
 20
-41.11029585960745
 30
0.0
 10
0.8570629259772697
 20
-41.31167048851987
 30
0.0
 10
0.2200314212332923
 20
-41.51304511743228
 30
0.0
 10
-0.2592764740039584
 20
-41.7144197463447
 30
0.0
 10
-0.7429810328879714
 20
-41.91764157310034
 30
0.0
 10
-1.031015398029476
 20
-42.12086339985597
 30
0.0
 10
-0.9974326923198264
 20
-42.3240852266116
 30
0.0
 10
-0.9784038800858073
 20
-42.43923586446137
 30
0.0
 10
-0.863375596957948
 20
-42.55438650231114
 30
0.0
 10
-0.7051386063148378
 20
-42.6695371401609
 30
0.0
  0
SPLINE
  5
1B68A
330
1B61C
100
AcDbEntity
  8
0
100
AcDbSpline
210
0.0
220
0.0
230
1.0
 70
     8
 71
     3
 72
    10
 73
     6
 74
     0
 42
0.000000001
 43
0.0000000001
 40
0.035839000477697
 40
0.035839000477697
 40
0.035839000477697
 40
0.035839000477697
 40
0.0390572375072298
 40
0.0390572375072298
 40
0.0718267267961181
 40
0.0718267267961181
 40
0.0718267267961181
 40
0.0718267267961181
 10
-0.4303146436506009
 20
-42.88493595368784
 30
0.0
 10
-0.438214821054336
 20
-42.87826782870154
 30
0.0
 10
-0.4461548754222403
 20
-42.87162862242681
 30
0.0
 10
-0.5353227572865809
 20
-42.79770982897289
 30
0.0
 10
-0.6209029094547258
 20
-42.73275245245529
 30
0.0
 10
-0.7082217526164831
 20
-42.6695371401609
 30
0.0
  0
SPLINE
  5
1B68B
330
1B61C
100
AcDbEntity
  8
0
100
AcDbSpline
210
0.0
220
0.0
230
1.0
 70
     8
 71
     3
 72
     8
 73
     4
 74
     0
 42
0.000000001
 43
0.0000000001
 40
0.0
 40
0.0
 40
0.0
 40
0.0
 40
0.0642429943133191
 40
0.0642429943133191
 40
0.0642429943133191
 40
0.0642429943133191
 10
1.007783423763826
 20
-41.24366608995341
 30
0.0
 10
0.8304221262228878
 20
-41.36190695498071
 30
0.0
 10
0.6548015556214791
 20
-41.48413147026434
 30
0.0
 10
0.4930497967582287
 20
-41.61458970958416
 30
0.0
  0
SPLINE
  5
1B68C
330
1B61C
100
AcDbEntity
  8
0
100
AcDbSpline
210
0.0
220
0.0
230
1.0
 70
     8
 71
     3
 72
     8
 73
     4
 74
     0
 42
0.000000001
 43
0.0000000001
 40
0.0
 40
0.0
 40
0.0
 40
0.0
 40
0.0596227978587847
 40
0.0596227978587847
 40
0.0596227978587847
 40
0.0596227978587847
 10
-0.8221605759379535
 20
-42.0126213149602
 30
0.0
 10
-0.66851753756755
 20
-41.89377558871395
 30
0.0
 10
-0.5203085883046425
 20
-41.7694605912527
 30
0.0
 10
-0.390795937029151
 20
-41.63860769772107
 30
0.0
  0
ENDBLK
  5
1B61E
330
1B61C
100
AcDbEntity
  8
0
100
AcDbBlockEnd
  0
BLOCK
  5
1B77C
330
1B77B
100
AcDbEntity
  8
0
100
AcDbBlockBegin
  2
TTFA442X45T-20-Top
 70
     0
 10
0.0
 20
0.0
 30
0.0
  3
TTFA442X45T-20-Top
  1

  0
LINE
  5
1B77E
330
1B77B
100
AcDbEntity
  8
0
100
AcDbLine
 10
2.528681092886313
 20
-0.4844173416495316
 30
0.0
 11
2.42705507662615
 21
-0.4844173416495316
 31
0.0
  0
LINE
  5
1B77F
330
1B77B
100
AcDbEntity
  8
0
100
AcDbLine
 10
2.42705507662615
 20
-0.4844173416495316
 30
0.0
 11
2.577235745099502
 21
-0.21680216549777
 31
0.0
  0
LINE
  5
1B780
330
1B77B
100
AcDbEntity
  8
0
100
AcDbLine
 10
2.577235745099502
 20
-0.21680216549777
 30
0.0
 11
2.265582628568336
 21
-0.2168021654977702
 31
0.0
  0
LINE
  5
1B781
330
1B77B
100
AcDbEntity
  8
0
100
AcDbLine
 10
2.265582628568336
 20
-0.2168021654977702
 30
0.0
 11
2.265582628568336
 21
-0.1287262847389623
 31
0.0
  0
LINE
  5
1B782
330
1B77B
100
AcDbEntity
  8
0
100
AcDbLine
 10
2.265582628568336
 20
-0.1287262847389623
 30
0.0
 11
2.626919575271137
 21
-0.1287262847389622
 31
0.0
  0
LINE
  5
1B783
330
1B77B
100
AcDbEntity
  8
0
100
AcDbLine
 10
2.626919575271137
 20
-0.1287262847389622
 30
0.0
 11
2.771454353952257
 21
0.1275971118283368
 31
0.0
  0
LINE
  5
1B784
330
1B77B
100
AcDbEntity
  8
0
100
AcDbLine
 10
2.771454353952257
 20
0.1275971118283368
 30
0.0
 11
2.265582628568336
 21
0.1275971118283366
 31
0.0
  0
LINE
  5
1B785
330
1B77B
100
AcDbEntity
  8
0
100
AcDbLine
 10
2.265582628568336
 20
0.1275971118283366
 30
0.0
 11
2.265582628568336
 21
0.2156729925871441
 31
0.0
  0
LINE
  5
1B786
330
1B77B
100
AcDbEntity
  8
0
100
AcDbLine
 10
2.265582628568336
 20
0.2156729925871441
 30
0.0
 11
2.821138184123892
 21
0.2156729925871444
 31
0.0
  0
LINE
  5
1B787
330
1B77B
100
AcDbEntity
  8
0
100
AcDbLine
 10
2.821138184123892
 20
0.2156729925871444
 30
0.0
 11
2.97244803055569
 21
0.4844173466973523
 31
0.0
  0
LINE
  5
1B788
330
1B77B
100
AcDbEntity
  8
0
100
AcDbLine
 10
2.97244803055569
 20
0.4844173466973523
 30
0.0
 11
3.075203224774299
 21
0.4844173466973523
 31
0.0
  0
LINE
  5
1B789
330
1B77B
100
AcDbEntity
  8
0
100
AcDbLine
 10
3.075203224774299
 20
0.4844173466973523
 30
0.0
 11
2.923893378342501
 21
0.2156729925871445
 31
0.0
  0
LINE
  5
1B78A
330
1B77B
100
AcDbEntity
  8
0
100
AcDbLine
 10
2.923893378342501
 20
0.2156729925871445
 30
0.0
 11
3.233288138956774
 21
0.2156729925871446
 31
0.0
  0
LINE
  5
1B78B
330
1B77B
100
AcDbEntity
  8
0
100
AcDbLine
 10
3.233288138956774
 20
0.2156729925871446
 30
0.0
 11
3.233288138956774
 21
0.127597111828337
 31
0.0
  0
LINE
  5
1B78C
330
1B77B
100
AcDbEntity
  8
0
100
AcDbLine
 10
3.233288138956774
 20
0.127597111828337
 30
0.0
 11
2.874209548170866
 21
0.1275971118283369
 31
0.0
  0
LINE
  5
1B78D
330
1B77B
100
AcDbEntity
  8
0
100
AcDbLine
 10
2.874209548170866
 20
0.1275971118283369
 30
0.0
 11
2.731933125406638
 21
-0.1287262847389621
 31
0.0
  0
LINE
  5
1B78E
330
1B77B
100
AcDbEntity
  8
0
100
AcDbLine
 10
2.731933125406638
 20
-0.1287262847389621
 30
0.0
 11
3.233288138956774
 21
-0.1287262847389619
 31
0.0
  0
LINE
  5
1B78F
330
1B77B
100
AcDbEntity
  8
0
100
AcDbLine
 10
3.233288138956774
 20
-0.1287262847389619
 30
0.0
 11
3.233288138956774
 21
-0.2168021654977697
 31
0.0
  0
LINE
  5
1B790
330
1B77B
100
AcDbEntity
  8
0
100
AcDbLine
 10
3.233288138956774
 20
-0.2168021654977697
 30
0.0
 11
2.67999093931811
 21
-0.21680216549777
 31
0.0
  0
LINE
  5
1B791
330
1B77B
100
AcDbEntity
  8
0
100
AcDbLine
 10
2.67999093931811
 20
-0.21680216549777
 30
0.0
 11
2.528681092886313
 21
-0.4844173416495316
 31
0.0
  0
SPLINE
  5
1B792
330
1B77B
100
AcDbEntity
  8
0
100
AcDbSpline
210
0.0
220
0.0
230
1.0
 70
     8
 71
     2
 72
     8
 73
     5
 74
     0
 42
0.000000001
 43
0.0000000001
 40
0.0
 40
0.0
 40
0.0
 40
1.0
 40
2.0
 40
3.0
 40
3.0
 40
3.0
 10
-2.428353648916705
 20
0.1871189137455062
 30
0.0
 10
-2.451219502915969
 20
0.2633384270763875
 30
0.0
 10
-2.517530479513836
 20
0.3509908674069009
 30
0.0
 10
-2.641768286243172
 20
0.4035823316052087
 30
0.0
 10
-2.717225604440744
 20
0.4035823316052085
 30
0.0
  0
LINE
  5
1B793
330
1B77B
100
AcDbEntity
  8
0
100
AcDbLine
 10
-2.30945120812053
 20
0.2198933044777849
 30
0.0
 11
-2.428353648916705
 21
0.1871189137455062
 31
0.0
  0
SPLINE
  5
1B794
330
1B77B
100
AcDbEntity
  8
0
100
AcDbSpline
210
0.0
220
0.0
230
1.0
 70
     8
 71
     2
 72
     8
 73
     5
 74
     0
 42
0.000000001
 43
0.0000000001
 40
0.0
 40
0.0
 40
0.0
 40
1.0
 40
2.0
 40
3.0
 40
3.0
 40
3.0
 10
-2.717987799574053
 20
0.5171494064682216
 30
0.0
 10
-2.609756090644201
 20
0.5171494064682216
 30
0.0
 10
-2.434451209983175
 20
0.4470274542038108
 30
0.0
 10
-2.33536584265303
 20
0.3212652572078571
 30
0.0
 10
-2.30945120812053
 20
0.2198933044777849
 30
0.0
  0
SPLINE
  5
1B795
330
1B77B
100
AcDbEntity
  8
0
100
AcDbSpline
210
0.0
220
0.0
230
1.0
 70
     8
 71
     2
 72
     8
 73
     5
 74
     0
 42
0.000000001
 43
0.0000000001
 40
0.0
 40
0.0
 40
0.0
 40
1.0
 40
2.0
 40
3.0
 40
3.0
 40
3.0
 10
-3.218750002157943
 20
-0.0049542598483149
 30
0.0
 10
-3.218750002157943
 20
0.1413872057469772
 30
0.0
 10
-3.096798780828533
 20
0.3944359900055028
 30
0.0
 10
-2.86737804570258
 20
0.5171494064682216
 30
0.0
 10
-2.717987799574053
 20
0.5171494064682216
 30
0.0
  0
SPLINE
  5
1B796
330
1B77B
100
AcDbEntity
  8
0
100
AcDbSpline
210
0.0
220
0.0
230
1.0
 70
     8
 71
     2
 72
     8
 73
     5
 74
     0
 42
0.000000001
 43
0.0000000001
 40
0.0
 40
0.0
 40
0.0
 40
1.0
 40
2.0
 40
3.0
 40
3.0
 40
3.0
 10
-2.708079262841039
 20
-0.5171493894318362
 30
0.0
 10
-2.855182923569639
 20
-0.5171493894318362
 30
0.0
 10
-3.096036585695224
 20
-0.3906249973025733
 30
0.0
 10
-3.218750002157943
 20
-0.1520579205769152
 30
0.0
 10
-3.218750002157943
 20
-0.0049542598483149
 30
0.0
  0
SPLINE
  5
1B797
330
1B77B
100
AcDbEntity
  8
0
100
AcDbSpline
210
0.0
220
0.0
230
1.0
 70
     8
 71
     2
 72
     7
 73
     4
 74
     0
 42
0.000000001
 43
0.0000000001
 40
0.0
 40
0.0
 40
0.0
 40
1.0
 40
2.0
 40
2.0
 40
2.0
 10
-2.294207305454354
 20
-0.3608993871035294
 30
0.0
 10
-2.391768282517882
 20
-0.4386432907010282
 30
0.0
 10
-2.599085358777879
 20
-0.517149389431836
 30
0.0
 10
-2.708079262841039
 20
-0.5171493894318362
 30
0.0
  0
LINE
  5
1B798
330
1B77B
100
AcDbEntity
  8
0
100
AcDbLine
 10
-2.294207305454354
 20
0.0095274476845529
 30
0.0
 11
-2.294207305454354
 21
-0.3608993871035294
 31
0.0
  0
LINE
  5
1B799
330
1B77B
100
AcDbEntity
  8
0
100
AcDbLine
 10
-2.717225604440744
 20
0.0095274476845527
 30
0.0
 11
-2.294207305454354
 21
0.0095274476845529
 31
0.0
  0
LINE
  5
1B79A
330
1B77B
100
AcDbEntity
  8
0
100
AcDbLine
 10
-2.717225604440745
 20
-0.1086127979783129
 30
0.0
 11
-2.717225604440744
 21
0.0095274476845527
 31
0.0
  0
LINE
  5
1B79B
330
1B77B
100
AcDbEntity
  8
0
100
AcDbLine
 10
-2.423780478116852
 20
-0.1086127979783127
 30
0.0
 11
-2.717225604440745
 21
-0.1086127979783129
 31
0.0
  0
LINE
  5
1B79C
330
1B77B
100
AcDbEntity
  8
0
100
AcDbLine
 10
-2.423780478116852
 20
-0.2938262153723539
 30
0.0
 11
-2.423780478116852
 21
-0.1086127979783127
 31
0.0
  0
SPLINE
  5
1B79D
330
1B77B
100
AcDbEntity
  8
0
100
AcDbSpline
210
0.0
220
0.0
230
1.0
 70
     8
 71
     2
 72
     7
 73
     4
 74
     0
 42
0.000000001
 43
0.0000000001
 40
0.0
 40
0.0
 40
0.0
 40
1.0
 40
2.0
 40
2.0
 40
2.0
 10
-2.715701214174127
 20
-0.3974847535023528
 30
0.0
 10
-2.629573164110231
 20
-0.3974847535023526
 30
0.0
 10
-2.465701210448837
 20
-0.3311737769044856
 30
0.0
 10
-2.423780478116852
 20
-0.2938262153723539
 30
0.0
  0
SPLINE
  5
1B79E
330
1B77B
100
AcDbEntity
  8
0
100
AcDbSpline
210
0.0
220
0.0
230
1.0
 70
     8
 71
     2
 72
     8
 73
     5
 74
     0
 42
0.000000001
 43
0.0000000001
 40
0.0
 40
0.0
 40
0.0
 40
1.0
 40
2.0
 40
3.0
 40
3.0
 40
3.0
 10
-3.082317073295665
 20
0.0034298866180821
 30
0.0
 10
-3.082317073295665
 20
-0.12995426171096
 30
0.0
 10
-2.990091462165299
 20
-0.310594508305148
 30
0.0
 10
-2.814024386370963
 20
-0.3974847535023528
 30
0.0
 10
-2.715701214174127
 20
-0.3974847535023528
 30
0.0
  0
SPLINE
  5
1B79F
330
1B77B
100
AcDbEntity
  8
0
100
AcDbSpline
210
0.0
220
0.0
230
1.0
 70
     8
 71
     2
 72
     6
 73
     3
 74
     0
 42
0.000000001
 43
0.0000000001
 40
0.0
 40
0.0
 40
0.0
 40
1.0
 40
1.0
 40
1.0
 10
-3.044207316630225
 20
0.2046494018116085
 30
0.0
 10
-3.082317073295665
 20
0.1116615955479333
 30
0.0
 10
-3.082317073295665
 20
0.0034298866180821
 30
0.0
  0
SPLINE
  5
1B7A0
330
1B77B
100
AcDbEntity
  8
0
100
AcDbSpline
210
0.0
220
0.0
230
1.0
 70
     8
 71
     2
 72
     8
 73
     5
 74
     0
 42
0.000000001
 43
0.0000000001
 40
0.0
 40
0.0
 40
0.0
 40
1.0
 40
2.0
 40
3.0
 40
3.0
 40
3.0
 10
-2.717225604440744
 20
0.4035823316052085
 30
0.0
 10
-2.807926825304493
 20
0.4035823316052085
 30
0.0
 10
-2.940548778500226
 20
0.3487042820069742
 30
0.0
 10
-3.02134146263096
 20
0.2580030611432255
 30
0.0
 10
-3.044207316630225
 20
0.2046494018116085
 30
0.0
  0
SPLINE
  5
1B7A1
330
1B77B
100
AcDbEntity
  8
0
100
AcDbSpline
210
0.0
220
0.0
230
1.0
 70
     8
 71
     3
 72
    12
 73
     8
 74
     0
 42
0.000000001
 43
0.0000000001
 40
0.0701625880555413
 40
0.0701625880555413
 40
0.0701625880555413
 40
0.0701625880555413
 40
0.0876266719572695
 40
0.0876266719572695
 40
0.1050907558589977
 40
0.1050907558589977
 40
0.121349748553623
 40
0.121349748553623
 40
0.121349748553623
 40
0.121349748553623
 10
-1.710400172474266
 20
0.9874999999999991
 30
0.0
 10
-1.681293365971386
 20
1.037914467709064
 30
0.0
 10
-1.638865373917004
 20
1.084176439154849
 30
0.0
 10
-1.537687359965963
 20
1.152007246533188
 30
0.0
 10
-1.478938253707482
 20
1.173575309033163
 30
0.0
 10
-1.368340087023359
 20
1.188649165648808
 30
0.0
 10
-1.31093246180066
 20
1.184828025995694
 30
0.0
 10
-1.257017608299373
 20
1.168994388991213
 30
0.0
  0
SPLINE
  5
1B7A2
330
1B77B
100
AcDbEntity
  8
0
100
AcDbSpline
210
0.0
220
0.0
230
1.0
 70
     8
 71
     3
 72
    18
 73
    14
 74
     0
 42
0.000000001
 43
0.0000000001
 40
0.028525742117437
 40
0.028525742117437
 40
0.028525742117437
 40
0.028525742117437
 40
0.0417123967319211
 40
0.0417123967319211
 40
0.0621425582382483
 40
0.0621425582382483
 40
0.0825727197445755
 40
0.0825727197445755
 40
0.1030028812509027
 40
0.1030028812509027
 40
0.1234330427572299
 40
0.1234330427572299
 40
0.1366196973717141
 40
0.1366196973717141
 40
0.1366196973717141
 40
0.1366196973717141
 10
-1.257017608299373
 20
1.168994388991213
 30
0.0
 10
-1.212572578662662
 20
1.155941836304516
 30
0.0
 10
-1.167442820982028
 20
1.14761349154439
 30
0.0
 10
-1.056846689319522
 20
1.137519885577465
 30
0.0
 10
-0.9830801185813072
 20
1.141273850507828
 30
0.0
 10
-0.840396696767859
 20
1.172524294941498
 30
0.0
 10
-0.7714767962263282
 20
1.200035931215611
 30
0.0
 10
-0.6535232037736727
 20
1.268136469570035
 30
0.0
 10
-0.5952374775898476
 20
1.314067036128241
 30
0.0
 10
-0.4968320879240121
 20
1.422009281900743
 30
0.0
 10
-0.4566977735602939
 20
1.484016023644918
 30
0.0
 10
-0.4101410269121882
 20
1.584841886208399
 30
0.0
 10
-0.3947887062056154
 20
1.628089575206527
 30
0.0
 10
-0.3838700335981742
 20
1.673106376287219
 30
0.0
  0
SPLINE
  5
1B7A3
330
1B77B
100
AcDbEntity
  8
0
100
AcDbSpline
210
0.0
220
0.0
230
1.0
 70
     8
 71
     3
 72
    12
 73
     8
 74
     0
 42
0.000000001
 43
0.0000000001
 40
0.0189754275574595
 40
0.0189754275574595
 40
0.0189754275574595
 40
0.0189754275574595
 40
0.0352344202520848
 40
0.0352344202520848
 40
0.052698504153813
 40
0.052698504153813
 40
0.0701625880555413
 40
0.0701625880555413
 40
0.0701625880555413
 40
0.0701625880555413
 10
-0.3838700335981742
 20
1.673106376287219
 30
0.0
 10
-0.3706249387277128
 20
1.727714827562891
 30
0.0
 10
-0.3452303301273682
 20
1.779341859203243
 30
0.0
 10
-0.2768769040231541
 20
1.867585752855856
 30
0.0
 10
-0.2288238608585238
 20
1.907679940075345
 30
0.0
 10
-0.119491651534153
 20
1.961387266772234
 30
0.0
 10
-0.058213613005762
 20
1.974999999999999
 30
0.0
 10
-0.0000000000000012
 20
1.974999999999999
 30
0.0
  0
SPLINE
  5
1B7A4
330
1B77B
100
AcDbEntity
  8
0
100
AcDbSpline
210
0.0
220
0.0
230
1.0
 70
     8
 71
     3
 72
    12
 73
     8
 74
     0
 42
0.000000001
 43
0.0000000001
 40
0.0701625880555413
 40
0.0701625880555413
 40
0.0701625880555413
 40
0.0701625880555413
 40
0.0876266719572696
 40
0.0876266719572696
 40
0.1050907558589978
 40
0.1050907558589978
 40
0.1213497485536232
 40
0.1213497485536232
 40
0.1213497485536232
 40
0.1213497485536232
 10
-1.710400172474266
 20
-0.9875000000000015
 30
0.0
 10
-1.739506978977146
 20
-0.9370855322909365
 30
0.0
 10
-1.758357025451157
 20
-0.8772108276173856
 30
0.0
 10
-1.766511220824486
 20
-0.7556726935421577
 30
0.0
 10
-1.755815157730634
 20
-0.6940104438226931
 30
0.0
 10
-1.713570417150726
 20
-0.5906926935544341
 30
0.0
 10
-1.681557400528371
 20
-0.5428868015671979
 30
0.0
 10
-1.640887641897545
 20
-0.5041119872960073
 30
0.0
  0
SPLINE
  5
1B7A5
330
1B77B
100
AcDbEntity
  8
0
100
AcDbSpline
210
0.0
220
0.0
230
1.0
 70
     8
 71
     3
 72
    18
 73
    14
 74
     0
 42
0.000000001
 43
0.0000000001
 40
0.028525742117437
 40
0.028525742117437
 40
0.028525742117437
 40
0.028525742117437
 40
0.0417123967319211
 40
0.0417123967319211
 40
0.0621425582382483
 40
0.0621425582382483
 40
0.0825727197445755
 40
0.0825727197445755
 40
0.1030028812509027
 40
0.1030028812509027
 40
0.1234330427572299
 40
0.1234330427572299
 40
0.136619697371714
 40
0.136619697371714
 40
0.136619697371714
 40
0.136619697371714
 10
-1.640887641897545
 20
-0.5041119872960073
 30
0.0
 10
-1.607361284868276
 20
-0.472147738902012
 30
0.0
 10
-1.577583847894215
 20
-0.43722839466401
 30
0.0
 10
-1.513544462879815
 20
-0.3464961380674539
 30
0.0
 10
-1.479912206505317
 20
-0.2807354313929159
 30
0.0
 10
-1.435634174357705
 20
-0.1415427411867444
 30
0.0
 10
-1.424999999999999
 20
-0.0681005383544251
 30
0.0
 10
-1.424999999999999
 20
0.0681005383544231
 30
0.0
 10
-1.435634174357705
 20
0.1415427411867425
 30
0.0
 10
-1.479912206505317
 20
0.2807354313929138
 30
0.0
 10
-1.513544462879815
 20
0.3464961380674517
 30
0.0
 10
-1.577583847894215
 20
0.4372283946640078
 30
0.0
 10
-1.607361284868276
 20
0.4721477389020097
 30
0.0
 10
-1.640887641897545
 20
0.5041119872960049
 30
0.0
  0
SPLINE
  5
1B7A6
330
1B77B
100
AcDbEntity
  8
0
100
AcDbSpline
210
0.0
220
0.0
230
1.0
 70
     8
 71
     3
 72
    12
 73
     8
 74
     0
 42
0.000000001
 43
0.0000000001
 40
0.0189754275574595
 40
0.0189754275574595
 40
0.0189754275574595
 40
0.0189754275574595
 40
0.0352344202520847
 40
0.0352344202520847
 40
0.052698504153813
 40
0.052698504153813
 40
0.0701625880555413
 40
0.0701625880555413
 40
0.0701625880555413
 40
0.0701625880555413
 10
-1.640887641897545
 20
0.5041119872960049
 30
0.0
 10
-1.681557400528371
 20
0.5428868015671952
 30
0.0
 10
-1.713570417150726
 20
0.590692693554432
 30
0.0
 10
-1.755815157730635
 20
0.6940104438226904
 30
0.0
 10
-1.766511220824486
 20
0.7556726935421552
 30
0.0
 10
-1.758357025451157
 20
0.8772108276173828
 30
0.0
 10
-1.739506978977147
 20
0.9370855322909338
 30
0.0
 10
-1.710400172474266
 20
0.9874999999999991
 30
0.0
  0
SPLINE
  5
1B7A7
330
1B77B
100
AcDbEntity
  8
0
100
AcDbSpline
210
0.0
220
0.0
230
1.0
 70
     8
 71
     3
 72
    12
 73
     8
 74
     0
 42
0.000000001
 43
0.0000000001
 40
0.0701625880555411
 40
0.0701625880555411
 40
0.0701625880555411
 40
0.0701625880555411
 40
0.0876266719572693
 40
0.0876266719572693
 40
0.1050907558589975
 40
0.1050907558589975
 40
0.1213497485536227
 40
0.1213497485536227
 40
0.1213497485536227
 40
0.1213497485536227
 10
0.0000000000000005
 20
-1.974999999999998
 30
0.0
 10
-0.0582136130057601
 20
-1.974999999999998
 30
0.0
 10
-0.119491651534151
 20
-1.961387266772233
 30
0.0
 10
-0.2288238608585217
 20
-1.907679940075344
 30
0.0
 10
-0.276876904023152
 20
-1.867585752855855
 30
0.0
 10
-0.345230330127366
 20
-1.779341859203241
 30
0.0
 10
-0.3706249387277118
 20
-1.727714827562891
 30
0.0
 10
-0.3838700335981733
 20
-1.67310637628722
 30
0.0
  0
SPLINE
  5
1B7A8
330
1B77B
100
AcDbEntity
  8
0
100
AcDbSpline
210
0.0
220
0.0
230
1.0
 70
     8
 71
     3
 72
    18
 73
    14
 74
     0
 42
0.000000001
 43
0.0000000001
 40
0.028525742117437
 40
0.028525742117437
 40
0.028525742117437
 40
0.028525742117437
 40
0.0417123967319211
 40
0.0417123967319211
 40
0.0621425582382483
 40
0.0621425582382483
 40
0.0825727197445755
 40
0.0825727197445755
 40
0.1030028812509027
 40
0.1030028812509027
 40
0.1234330427572299
 40
0.1234330427572299
 40
0.136619697371714
 40
0.136619697371714
 40
0.136619697371714
 40
0.136619697371714
 10
-0.3838700335981733
 20
-1.67310637628722
 30
0.0
 10
-0.3947887062056143
 20
-1.628089575206528
 30
0.0
 10
-0.4101410269121871
 20
-1.584841886208401
 30
0.0
 10
-0.4566977735602926
 20
-1.484016023644919
 30
0.0
 10
-0.4968320879240107
 20
-1.422009281900744
 30
0.0
 10
-0.5952374775898467
 20
-1.314067036128242
 30
0.0
 10
-0.6535232037736718
 20
-1.268136469570037
 30
0.0
 10
-0.7714767962263272
 20
-1.200035931215613
 30
0.0
 10
-0.8403966967678579
 20
-1.172524294941499
 30
0.0
 10
-0.983080118581306
 20
-1.14127385050783
 30
0.0
 10
-1.056846689319521
 20
-1.137519885577466
 30
0.0
 10
-1.167442820982027
 20
-1.147613491544392
 30
0.0
 10
-1.212572578662661
 20
-1.155941836304518
 30
0.0
 10
-1.257017608299372
 20
-1.168994388991214
 30
0.0
  0
SPLINE
  5
1B7A9
330
1B77B
100
AcDbEntity
  8
0
100
AcDbSpline
210
0.0
220
0.0
230
1.0
 70
     8
 71
     3
 72
    12
 73
     8
 74
     0
 42
0.000000001
 43
0.0000000001
 40
0.0189754275574596
 40
0.0189754275574596
 40
0.0189754275574596
 40
0.0189754275574596
 40
0.0352344202520848
 40
0.0352344202520848
 40
0.0526985041538131
 40
0.0526985041538131
 40
0.0701625880555413
 40
0.0701625880555413
 40
0.0701625880555413
 40
0.0701625880555413
 10
-1.257017608299372
 20
-1.168994388991214
 30
0.0
 10
-1.310932461800659
 20
-1.184828025995696
 30
0.0
 10
-1.368340087023358
 20
-1.18864916564881
 30
0.0
 10
-1.478938253707481
 20
-1.173575309033166
 30
0.0
 10
-1.537687359965963
 20
-1.15200724653319
 30
0.0
 10
-1.638865373917004
 20
-1.084176439154851
 30
0.0
 10
-1.681293365971385
 20
-1.037914467709066
 30
0.0
 10
-1.710400172474266
 20
-0.9875000000000015
 30
0.0
  0
SPLINE
  5
1B7AA
330
1B77B
100
AcDbEntity
  8
0
100
AcDbSpline
210
0.0
220
0.0
230
1.0
 70
     8
 71
     3
 72
    12
 73
     8
 74
     0
 42
0.000000001
 43
0.0000000001
 40
0.0189754275574595
 40
0.0189754275574595
 40
0.0189754275574595
 40
0.0189754275574595
 40
0.0352344202520847
 40
0.0352344202520847
 40
0.0526985041538129
 40
0.0526985041538129
 40
0.0701625880555411
 40
0.0701625880555411
 40
0.0701625880555411
 40
0.0701625880555411
 10
0.383870033598174
 20
-1.673106376287219
 30
0.0
 10
0.3706249387277127
 20
-1.727714827562891
 30
0.0
 10
0.3452303301273671
 20
-1.779341859203242
 30
0.0
 10
0.2768769040231529
 20
-1.867585752855855
 30
0.0
 10
0.2288238608585226
 20
-1.907679940075344
 30
0.0
 10
0.1194916515341519
 20
-1.961387266772232
 30
0.0
 10
0.0582136130057612
 20
-1.974999999999998
 30
0.0
 10
0.0000000000000005
 20
-1.974999999999998
 30
0.0
  0
SPLINE
  5
1B7AB
330
1B77B
100
AcDbEntity
  8
0
100
AcDbSpline
210
0.0
220
0.0
230
1.0
 70
     8
 71
     3
 72
    12
 73
     8
 74
     0
 42
0.000000001
 43
0.0000000001
 40
0.0701625880555416
 40
0.0701625880555416
 40
0.0701625880555416
 40
0.0701625880555416
 40
0.0876266719572699
 40
0.0876266719572699
 40
0.1050907558589982
 40
0.1050907558589982
 40
0.1213497485536236
 40
0.1213497485536236
 40
0.1213497485536236
 40
0.1213497485536236
 10
1.710400172474268
 20
-0.9875000000000008
 30
0.0
 10
1.681293365971388
 20
-1.037914467709066
 30
0.0
 10
1.638865373917006
 20
-1.084176439154851
 30
0.0
 10
1.537687359965964
 20
-1.15200724653319
 30
0.0
 10
1.478938253707482
 20
-1.173575309033166
 30
0.0
 10
1.368340087023359
 20
-1.188649165648811
 30
0.0
 10
1.31093246180066
 20
-1.184828025995695
 30
0.0
 10
1.257017608299373
 20
-1.168994388991213
 30
0.0
  0
SPLINE
  5
1B7AC
330
1B77B
100
AcDbEntity
  8
0
100
AcDbSpline
210
0.0
220
0.0
230
1.0
 70
     8
 71
     3
 72
    18
 73
    14
 74
     0
 42
0.000000001
 43
0.0000000001
 40
0.028525742117437
 40
0.028525742117437
 40
0.028525742117437
 40
0.028525742117437
 40
0.0417123967319211
 40
0.0417123967319211
 40
0.0621425582382483
 40
0.0621425582382483
 40
0.0825727197445755
 40
0.0825727197445755
 40
0.1030028812509027
 40
0.1030028812509027
 40
0.1234330427572299
 40
0.1234330427572299
 40
0.1366196973717139
 40
0.1366196973717139
 40
0.1366196973717139
 40
0.1366196973717139
 10
1.257017608299373
 20
-1.168994388991213
 30
0.0
 10
1.212572578662662
 20
-1.155941836304517
 30
0.0
 10
1.167442820982028
 20
-1.147613491544391
 30
0.0
 10
1.056846689319522
 20
-1.137519885577466
 30
0.0
 10
0.9830801185813067
 20
-1.141273850507829
 30
0.0
 10
0.8403966967678586
 20
-1.172524294941498
 30
0.0
 10
0.7714767962263281
 20
-1.200035931215612
 30
0.0
 10
0.6535232037736725
 20
-1.268136469570036
 30
0.0
 10
0.5952374775898472
 20
-1.314067036128242
 30
0.0
 10
0.4968320879240116
 20
-1.422009281900744
 30
0.0
 10
0.4566977735602935
 20
-1.484016023644919
 30
0.0
 10
0.410141026912188
 20
-1.5848418862084
 30
0.0
 10
0.394788706205615
 20
-1.628089575206528
 30
0.0
 10
0.383870033598174
 20
-1.673106376287219
 30
0.0
  0
SPLINE
  5
1B7AD
330
1B77B
100
AcDbEntity
  8
0
100
AcDbSpline
210
0.0
220
0.0
230
1.0
 70
     8
 71
     3
 72
    12
 73
     8
 74
     0
 42
0.000000001
 43
0.0000000001
 40
0.0189754275574596
 40
0.0189754275574596
 40
0.0189754275574596
 40
0.0189754275574596
 40
0.0352344202520849
 40
0.0352344202520849
 40
0.0526985041538133
 40
0.0526985041538133
 40
0.0701625880555416
 40
0.0701625880555416
 40
0.0701625880555416
 40
0.0701625880555416
 10
1.640887641897545
 20
-0.5041119872960067
 30
0.0
 10
1.681557400528371
 20
-0.5428868015671973
 30
0.0
 10
1.713570417150727
 20
-0.5906926935544324
 30
0.0
 10
1.755815157730637
 20
-0.6940104438226915
 30
0.0
 10
1.766511220824488
 20
-0.755672693542156
 30
0.0
 10
1.758357025451159
 20
-0.877210827617384
 30
0.0
 10
1.739506978977149
 20
-0.9370855322909356
 30
0.0
 10
1.710400172474268
 20
-0.9875000000000008
 30
0.0
  0
SPLINE
  5
1B7AE
330
1B77B
100
AcDbEntity
  8
0
100
AcDbSpline
210
0.0
220
0.0
230
1.0
 70
     8
 71
     3
 72
    12
 73
     8
 74
     0
 42
0.000000001
 43
0.0000000001
 40
0.0701625880555412
 40
0.0701625880555412
 40
0.0701625880555412
 40
0.0701625880555412
 40
0.0876266719572695
 40
0.0876266719572695
 40
0.1050907558589977
 40
0.1050907558589977
 40
0.121349748553623
 40
0.121349748553623
 40
0.121349748553623
 40
0.121349748553623
 10
1.710400172474264
 20
0.9874999999999996
 30
0.0
 10
1.739506978977145
 20
0.9370855322909344
 30
0.0
 10
1.758357025451155
 20
0.8772108276173835
 30
0.0
 10
1.766511220824484
 20
0.7556726935421563
 30
0.0
 10
1.755815157730633
 20
0.6940104438226918
 30
0.0
 10
1.713570417150725
 20
0.5906926935544331
 30
0.0
 10
1.681557400528371
 20
0.542886801567196
 30
0.0
 10
1.640887641897545
 20
0.5041119872960053
 30
0.0
  0
SPLINE
  5
1B7AF
330
1B77B
100
AcDbEntity
  8
0
100
AcDbSpline
210
0.0
220
0.0
230
1.0
 70
     8
 71
     3
 72
    18
 73
    14
 74
     0
 42
0.000000001
 43
0.0000000001
 40
0.0285257421174369
 40
0.0285257421174369
 40
0.0285257421174369
 40
0.0285257421174369
 40
0.0417123967319208
 40
0.0417123967319208
 40
0.0621425582382479
 40
0.0621425582382479
 40
0.082572719744575
 40
0.082572719744575
 40
0.1030028812509022
 40
0.1030028812509022
 40
0.1234330427572293
 40
0.1234330427572293
 40
0.1366196973717132
 40
0.1366196973717132
 40
0.1366196973717132
 40
0.1366196973717132
 10
1.640887641897545
 20
0.5041119872960053
 30
0.0
 10
1.607361284868276
 20
0.4721477389020106
 30
0.0
 10
1.577583847894219
 20
0.4372283946640059
 30
0.0
 10
1.513544462879819
 20
0.3464961380674506
 30
0.0
 10
1.479912206505321
 20
0.2807354313929131
 30
0.0
 10
1.435634174357709
 20
0.1415427411867422
 30
0.0
 10
1.425000000000003
 20
0.0681005383544232
 30
0.0
 10
1.425000000000003
 20
-0.0681005383544243
 30
0.0
 10
1.435634174357709
 20
-0.1415427411867434
 30
0.0
 10
1.479912206505321
 20
-0.2807354313929142
 30
0.0
 10
1.513544462879818
 20
-0.3464961380674516
 30
0.0
 10
1.577583847894219
 20
-0.4372283946640069
 30
0.0
 10
1.607361284868276
 20
-0.4721477389020118
 30
0.0
 10
1.640887641897545
 20
-0.5041119872960067
 30
0.0
  0
SPLINE
  5
1B7B0
330
1B77B
100
AcDbEntity
  8
0
100
AcDbSpline
210
0.0
220
0.0
230
1.0
 70
     8
 71
     3
 72
    12
 73
     8
 74
     0
 42
0.000000001
 43
0.0000000001
 40
0.0189754275574595
 40
0.0189754275574595
 40
0.0189754275574595
 40
0.0189754275574595
 40
0.0352344202520848
 40
0.0352344202520848
 40
0.052698504153813
 40
0.052698504153813
 40
0.0701625880555412
 40
0.0701625880555412
 40
0.0701625880555412
 40
0.0701625880555412
 10
1.25701760829937
 20
1.168994388991214
 30
0.0
 10
1.310932461800658
 20
1.184828025995695
 30
0.0
 10
1.368340087023357
 20
1.188649165648809
 30
0.0
 10
1.47893825370748
 20
1.173575309033164
 30
0.0
 10
1.537687359965961
 20
1.152007246533188
 30
0.0
 10
1.638865373917003
 20
1.08417643915485
 30
0.0
 10
1.681293365971384
 20
1.037914467709064
 30
0.0
 10
1.710400172474264
 20
0.9874999999999996
 30
0.0
  0
SPLINE
  5
1B7B1
330
1B77B
100
AcDbEntity
  8
0
100
AcDbSpline
210
0.0
220
0.0
230
1.0
 70
     8
 71
     3
 72
    12
 73
     8
 74
     0
 42
0.000000001
 43
0.0000000001
 40
0.0701625880555413
 40
0.0701625880555413
 40
0.0701625880555413
 40
0.0701625880555413
 40
0.0876266719572695
 40
0.0876266719572695
 40
0.1050907558589977
 40
0.1050907558589977
 40
0.121349748553623
 40
0.121349748553623
 40
0.121349748553623
 40
0.121349748553623
 10
-0.0000000000000012
 20
1.974999999999999
 30
0.0
 10
0.0582136130057596
 20
1.974999999999999
 30
0.0
 10
0.1194916515341507
 20
1.961387266772234
 30
0.0
 10
0.2288238608585216
 20
1.907679940075345
 30
0.0
 10
0.2768769040231518
 20
1.867585752855856
 30
0.0
 10
0.345230330127366
 20
1.779341859203243
 30
0.0
 10
0.3706249387277108
 20
1.727714827562891
 30
0.0
 10
0.3838700335981724
 20
1.67310637628722
 30
0.0
  0
SPLINE
  5
1B7B2
330
1B77B
100
AcDbEntity
  8
0
100
AcDbSpline
210
0.0
220
0.0
230
1.0
 70
     8
 71
     3
 72
    18
 73
    14
 74
     0
 42
0.000000001
 43
0.0000000001
 40
0.028525742117437
 40
0.028525742117437
 40
0.028525742117437
 40
0.028525742117437
 40
0.0417123967319211
 40
0.0417123967319211
 40
0.0621425582382483
 40
0.0621425582382483
 40
0.0825727197445755
 40
0.0825727197445755
 40
0.1030028812509027
 40
0.1030028812509027
 40
0.1234330427572299
 40
0.1234330427572299
 40
0.1366196973717139
 40
0.1366196973717139
 40
0.1366196973717139
 40
0.1366196973717139
 10
0.3838700335981724
 20
1.67310637628722
 30
0.0
 10
0.3947887062056135
 20
1.628089575206528
 30
0.0
 10
0.4101410269121868
 20
1.5848418862084
 30
0.0
 10
0.4566977735602923
 20
1.484016023644919
 30
0.0
 10
0.4968320879240103
 20
1.422009281900744
 30
0.0
 10
0.595237477589846
 20
1.314067036128241
 30
0.0
 10
0.6535232037736714
 20
1.268136469570036
 30
0.0
 10
0.7714767962263269
 20
1.200035931215612
 30
0.0
 10
0.8403966967678575
 20
1.172524294941498
 30
0.0
 10
0.9830801185813058
 20
1.141273850507829
 30
0.0
 10
1.056846689319521
 20
1.137519885577466
 30
0.0
 10
1.167442820982027
 20
1.147613491544391
 30
0.0
 10
1.21257257866266
 20
1.155941836304517
 30
0.0
 10
1.25701760829937
 20
1.168994388991214
 30
0.0
  0
CIRCLE
  5
1B7B3
330
1B77B
100
AcDbEntity
  8
0
100
AcDbCircle
 10
-0.0000000000000003
 20
-0.0000000000000003
 30
0.0
 40
1.975
  0
CIRCLE
  5
1B7B4
330
1B77B
100
AcDbEntity
  8
0
100
AcDbCircle
 10
-0.0000000000000003
 20
-0.0000000000000003
 30
0.0
 40
3.5
  0
ENDBLK
  5
1B77D
330
1B77B
100
AcDbEntity
  8
0
100
AcDbBlockEnd
  0
BLOCK
  5
1B827
330
1B826
100
AcDbEntity
  8
0
100
AcDbBlockBegin
  2
TTFA442X45T-20-ISO
 70
     0
 10
0.0
 20
0.0
 30
0.0
  3
TTFA442X45T-20-ISO
  1

  0
LINE
  5
1B829
330
1B826
100
AcDbEntity
  8
0
100
AcDbLine
 10
2.190369714152209
 20
17.21224541526829
 30
0.0
 11
2.220008670869593
 21
17.21702943194163
 31
0.0
  0
LINE
  5
1B82A
330
1B826
100
AcDbEntity
  8
0
100
AcDbLine
 10
2.049938950462259
 20
17.26154174421113
 30
0.0
 11
2.079796970384893
 21
17.24430320837132
 31
0.0
  0
LINE
  5
1B82B
330
1B826
100
AcDbEntity
  8
0
100
AcDbLine
 10
1.80953278903524
 20
17.15092088409117
 30
0.0
 11
1.840745209867323
 21
17.15594631918238
 31
0.0
  0
LINE
  5
1B82C
330
1B826
100
AcDbEntity
  8
0
100
AcDbLine
 10
1.669078590676822
 20
17.20023074304616
 30
0.0
 11
1.69865216161678
 21
17.18315643390308
 31
0.0
  0
LINE
  5
1B82D
330
1B826
100
AcDbEntity
  8
0
100
AcDbLine
 10
1.445512761033379
 20
17.14258106891618
 30
0.0
 11
1.373652315790844
 21
17.18406971632104
 31
0.0
  0
LINE
  5
1B82E
330
1B826
100
AcDbEntity
  8
0
100
AcDbLine
 10
1.373652315790844
 20
17.18406971632104
 30
0.0
 11
1.669078590676822
 21
17.23201215332221
 31
0.0
  0
LINE
  5
1B82F
330
1B826
100
AcDbEntity
  8
0
100
AcDbLine
 10
1.669078590676822
 20
17.17841612705202
 30
0.0
 11
1.669078590676822
 21
17.23201215332221
 31
0.0
  0
LINE
  5
1B830
330
1B826
100
AcDbEntity
  8
0
100
AcDbLine
 10
1.669078590676822
 20
17.23201215332221
 30
0.0
 11
1.448706558599713
 21
17.3592440053638
 31
0.0
  0
LINE
  5
1B831
330
1B826
100
AcDbEntity
  8
0
100
AcDbLine
 10
1.448706558599713
 20
17.3592440053638
 30
0.0
 11
1.510985611143244
 21
17.39520083311468
 31
0.0
  0
LINE
  5
1B832
330
1B826
100
AcDbEntity
  8
0
100
AcDbLine
 10
1.510985611143244
 20
17.32328717761291
 30
0.0
 11
1.510985611143244
 21
17.39520083311468
 31
0.0
  0
LINE
  5
1B833
330
1B826
100
AcDbEntity
  8
0
100
AcDbLine
 10
1.510985611143244
 20
17.39520083311468
 30
0.0
 11
1.766489416450036
 21
17.24768564234183
 31
0.0
  0
LINE
  5
1B834
330
1B826
100
AcDbEntity
  8
0
100
AcDbLine
 10
1.766489416450036
 20
17.17577198684006
 30
0.0
 11
1.766489416450036
 21
17.24768564234183
 31
0.0
  0
LINE
  5
1B835
330
1B826
100
AcDbEntity
  8
0
100
AcDbLine
 10
1.766489416450036
 20
17.24768564234183
 30
0.0
 11
2.049938950462259
 21
17.29332315448719
 31
0.0
  0
LINE
  5
1B836
330
1B826
100
AcDbEntity
  8
0
100
AcDbLine
 10
2.049938950462259
 20
17.23937093607721
 30
0.0
 11
2.049938950462259
 21
17.29332315448719
 31
0.0
  0
LINE
  5
1B837
330
1B826
100
AcDbEntity
  8
0
100
AcDbLine
 10
2.049938950462259
 20
17.29332315448719
 30
0.0
 11
1.69223362303275
 21
17.49984442156917
 31
0.0
  0
LINE
  5
1B838
330
1B826
100
AcDbEntity
  8
0
100
AcDbLine
 10
1.69223362303275
 20
17.49984442156917
 30
0.0
 11
1.75451267557628
 21
17.53580124932006
 31
0.0
  0
LINE
  5
1B839
330
1B826
100
AcDbEntity
  8
0
100
AcDbLine
 10
1.75451267557628
 20
17.46388759381828
 30
0.0
 11
1.75451267557628
 21
17.53580124932006
 31
0.0
  0
LINE
  5
1B83A
330
1B826
100
AcDbEntity
  8
0
100
AcDbLine
 10
1.75451267557628
 20
17.53580124932006
 30
0.0
 11
2.147349776235473
 21
17.3089966435068
 31
0.0
  0
LINE
  5
1B83B
330
1B826
100
AcDbEntity
  8
0
100
AcDbLine
 10
2.147349776235473
 20
17.23708298800502
 30
0.0
 11
2.147349776235473
 21
17.3089966435068
 31
0.0
  0
LINE
  5
1B83C
330
1B826
100
AcDbEntity
  8
0
100
AcDbLine
 10
2.147349776235473
 20
17.3089966435068
 30
0.0
 11
2.44437294990462
 21
17.35693908050798
 31
0.0
  0
LINE
  5
1B83D
330
1B826
100
AcDbEntity
  8
0
100
AcDbLine
 10
2.44437294990462
 20
17.30326159391928
 30
0.0
 11
2.44437294990462
 21
17.35693908050798
 31
0.0
  0
LINE
  5
1B83E
330
1B826
100
AcDbEntity
  8
0
100
AcDbLine
 10
2.44437294990462
 20
17.35693908050798
 30
0.0
 11
2.517031844538739
 21
17.31498944813194
 31
0.0
  0
LINE
  5
1B83F
330
1B826
100
AcDbEntity
  8
0
100
AcDbLine
 10
2.517031844538739
 20
17.31498944813194
 30
0.0
 11
2.220008670869593
 21
17.26704701113077
 31
0.0
  0
LINE
  5
1B840
330
1B826
100
AcDbEntity
  8
0
100
AcDbLine
 10
2.220008670869593
 20
17.195133355629
 30
0.0
 11
2.220008670869593
 21
17.26704701113077
 31
0.0
  0
LINE
  5
1B841
330
1B826
100
AcDbEntity
  8
0
100
AcDbLine
 10
2.220008670869593
 20
17.26704701113077
 30
0.0
 11
2.438783804163533
 21
17.14073712903152
 31
0.0
  0
LINE
  5
1B842
330
1B826
100
AcDbEntity
  8
0
100
AcDbLine
 10
2.438783804163533
 20
17.14073712903152
 30
0.0
 11
2.376504751620003
 21
17.10478030128063
 31
0.0
  0
LINE
  5
1B843
330
1B826
100
AcDbEntity
  8
0
100
AcDbLine
 10
2.376504751620003
 20
17.10478030128063
 30
0.0
 11
2.122597845096378
 21
17.25137352211115
 31
0.0
  0
LINE
  5
1B844
330
1B826
100
AcDbEntity
  8
0
100
AcDbLine
 10
2.122597845096378
 20
17.25137352211115
 30
0.0
 11
1.840745209867323
 21
17.20481404002347
 31
0.0
  0
LINE
  5
1B845
330
1B826
100
AcDbEntity
  8
0
100
AcDbLine
 10
1.840745209867323
 20
17.1329003845217
 30
0.0
 11
1.840745209867323
 21
17.20481404002347
 31
0.0
  0
LINE
  5
1B846
330
1B826
100
AcDbEntity
  8
0
100
AcDbLine
 10
1.840745209867323
 20
17.20481404002347
 30
0.0
 11
2.195256739730497
 21
17.00013671282615
 31
0.0
  0
LINE
  5
1B847
330
1B826
100
AcDbEntity
  8
0
100
AcDbLine
 10
2.195256739730497
 20
17.00013671282615
 30
0.0
 11
2.132977687186967
 21
16.96417988507526
 31
0.0
  0
LINE
  5
1B848
330
1B826
100
AcDbEntity
  8
0
100
AcDbLine
 10
2.132977687186967
 20
16.96417988507526
 30
0.0
 11
1.741737485310941
 21
17.19006252094619
 31
0.0
  0
LINE
  5
1B849
330
1B826
100
AcDbEntity
  8
0
100
AcDbLine
 10
1.741737485310941
 20
17.19006252094619
 30
0.0
 11
1.445512761033379
 21
17.14258106891618
 31
0.0
  0
SPLINE
  5
1B84A
330
1B826
100
AcDbEntity
  8
0
100
AcDbSpline
210
0.0
220
0.0
230
1.0
 70
     8
 71
     2
 72
     8
 73
     5
 74
     0
 42
0.000000001
 43
0.0000000001
 40
0.0
 40
0.0
 40
0.0
 40
1.0
 40
2.0
 40
3.0
 40
3.0
 40
3.0
 10
-1.584792279470389
 20
19.44043555627676
 30
0.0
 10
-1.547065545155886
 20
19.48088698809928
 30
0.0
 10
-1.531974851430084
 20
19.54374228985427
 30
0.0
 10
-1.582636466080989
 20
19.61593253741445
 30
0.0
 10
-1.635992847468643
 20
19.6467378585716
 30
0.0
  0
LINE
  5
1B84B
330
1B826
100
AcDbEntity
  8
0
100
AcDbLine
 10
-1.47754056334773
 20
19.40527392707719
 30
0.0
 11
-1.584792279470389
 21
19.44043555627676
 31
0.0
  0
SPLINE
  5
1B84C
330
1B826
100
AcDbEntity
  8
0
100
AcDbSpline
210
0.0
220
0.0
230
1.0
 70
     8
 71
     2
 72
     8
 73
     5
 74
     0
 42
0.000000001
 43
0.0000000001
 40
0.0
 40
0.0
 40
0.0
 40
1.0
 40
2.0
 40
3.0
 40
3.0
 40
3.0
 10
-1.556227752060837
 20
19.69341258759758
 30
0.0
 10
-1.47969637673713
 20
19.64922717745298
 30
0.0
 10
-1.405320814802824
 20
19.54903209247721
 30
0.0
 10
-1.424184181960076
 20
19.45723845872612
 30
0.0
 10
-1.47754056334773
 20
19.40527392707719
 30
0.0
  0
LINE
  5
1B84D
330
1B826
100
AcDbEntity
  8
0
100
AcDbLine
 10
-1.556227752060837
 20
19.58971752181976
 30
0.0
 11
-1.556227752060837
 21
19.69341258759758
 31
0.0
  0
SPLINE
  5
1B84E
330
1B826
100
AcDbEntity
  8
0
100
AcDbSpline
210
0.0
220
0.0
230
1.0
 70
     8
 71
     3
 72
    10
 73
     6
 74
     0
 42
0.000000001
 43
0.0000000001
 40
-0.0411688473427017
 40
-0.0411688473427017
 40
-0.0411688473427017
 40
-0.0411688473427017
 40
-0.0326535033811323
 40
-0.0326535033811323
 40
-0.0265677847721722
 40
-0.0265677847721722
 40
-0.0265677847721722
 40
-0.0265677847721722
 10
-1.556227752060837
 20
19.58971752181976
 30
0.0
 10
-1.522499062691728
 20
19.57024425393309
 30
0.0
 10
-1.49246062191779
 20
19.54873132663526
 30
0.0
 10
-1.451139876252918
 20
19.5079731801198
 30
0.0
 10
-1.436544863893169
 20
19.48943189619936
 30
0.0
 10
-1.426680241592594
 20
19.47036743859229
 30
0.0
  0
SPLINE
  5
1B84F
330
1B826
100
AcDbEntity
  8
0
100
AcDbSpline
210
0.0
220
0.0
230
1.0
 70
     8
 71
     2
 72
     8
 73
     5
 74
     0
 42
0.000000001
 43
0.0000000001
 40
0.0
 40
0.0
 40
0.0
 40
1.0
 40
2.0
 40
3.0
 40
3.0
 40
3.0
 10
-2.279503144204598
 20
19.68469997151273
 30
0.0
 10
-2.176024101513389
 20
19.74444362466598
 30
0.0
 10
-1.910859054617167
 20
19.79796398061577
 30
0.0
 10
-1.661862608141446
 20
19.75440090019152
 30
0.0
 10
-1.556227752060837
 20
19.69341258759758
 30
0.0
  0
LINE
  5
1B850
330
1B826
100
AcDbEntity
  8
0
100
AcDbLine
 10
-2.279503144204598
 20
19.58100490573491
 30
0.0
 11
-2.279503144204598
 21
19.68469997151273
 31
0.0
  0
SPLINE
  5
1B851
330
1B826
100
AcDbEntity
  8
0
100
AcDbSpline
210
0.0
220
0.0
230
1.0
 70
     8
 71
     3
 72
     8
 73
     4
 74
     0
 42
0.000000001
 43
0.0000000001
 40
-0.1930096882932511
 40
-0.1930096882932511
 40
-0.1930096882932511
 40
-0.1930096882932511
 40
-0.1489458532071665
 40
-0.1489458532071665
 40
-0.1489458532071665
 40
-0.1489458532071665
 10
-2.279503144204598
 20
19.58100490573491
 30
0.0
 10
-2.252450215925363
 20
19.59662392115929
 30
0.0
 10
-2.223378613622295
 20
19.61085633113583
 30
0.0
 10
-2.192128690522042
 20
19.62349604680576
 30
0.0
  0
SPLINE
  5
1B852
330
1B826
100
AcDbEntity
  8
0
100
AcDbSpline
210
0.0
220
0.0
230
1.0
 70
     8
 71
     3
 72
     8
 73
     4
 74
     0
 42
0.000000001
 43
0.0000000001
 40
-0.0023847634992366
 40
-0.0023847634992366
 40
-0.0023847634992366
 40
-0.0023847634992366
 40
0.0
 40
0.0
 40
0.0
 40
0.0
 10
-1.573342876958892
 20
19.59927482924469
 30
0.0
 10
-1.567553260437888
 20
19.59614992190351
 30
0.0
 10
-1.561848693533625
 20
19.59296277389217
 30
0.0
 10
-1.556227752060837
 20
19.58971752181976
 30
0.0
  0
SPLINE
  5
1B853
330
1B826
100
AcDbEntity
  8
0
100
AcDbSpline
210
0.0
220
0.0
230
1.0
 70
     8
 71
     2
 72
     8
 73
     5
 74
     0
 42
0.000000001
 43
0.0000000001
 40
0.0
 40
0.0
 40
0.0
 40
1.0
 40
2.0
 40
3.0
 40
3.0
 40
3.0
 10
-2.280581050899298
 20
19.26711672916029
 30
0.0
 10
-2.384599046937857
 20
19.32717154717372
 30
0.0
 10
-2.465442049040364
 20
19.4771530097772
 30
0.0
 10
-2.383521140243157
 20
19.6246451534993
 30
0.0
 10
-2.279503144204598
 20
19.68469997151273
 30
0.0
  0
SPLINE
  5
1B854
330
1B826
100
AcDbEntity
  8
0
100
AcDbSpline
210
0.0
220
0.0
230
1.0
 70
     8
 71
     3
 72
    10
 73
     6
 74
     0
 42
0.000000001
 43
0.0000000001
 40
-0.0330122141399794
 40
-0.0330122141399794
 40
-0.0330122141399794
 40
-0.0330122141399794
 40
-0.0234660025784388
 40
-0.0234660025784388
 40
0.0
 40
0.0
 40
0.0
 40
0.0
 10
-2.435086953780697
 20
19.42433485261647
 30
0.0
 10
-2.429723159818432
 20
19.43829515031509
 30
0.0
 10
-2.421612321539179
 20
19.45391217236498
 30
0.0
 10
-2.379543481807955
 20
19.51262311872437
 30
0.0
 10
-2.334813042706448
 20
19.54907172094601
 30
0.0
 10
-2.279503144204598
 20
19.58100490573491
 30
0.0
  0
SPLINE
  5
1B855
330
1B826
100
AcDbEntity
  8
0
100
AcDbSpline
210
0.0
220
0.0
230
1.0
 70
     8
 71
     2
 72
     7
 73
     4
 74
     0
 42
0.000000001
 43
0.0000000001
 40
0.0
 40
0.0
 40
0.0
 40
1.0
 40
2.0
 40
2.0
 40
2.0
 10
-1.877443947081464
 20
19.16194300642175
 30
0.0
 10
-2.001403216971974
 20
19.17003329278626
 30
0.0
 10
-2.203510722228241
 20
19.22262015415553
 30
0.0
 10
-2.280581050899298
 20
19.26711672916029
 30
0.0
  0
LINE
  5
1B856
330
1B826
100
AcDbEntity
  8
0
100
AcDbLine
 10
-1.615512620269342
 20
19.31316912846593
 30
0.0
 11
-1.877443947081464
 21
19.16194300642175
 31
0.0
  0
LINE
  5
1B857
330
1B826
100
AcDbEntity
  8
0
100
AcDbLine
 10
-1.914631728048617
 20
19.48586562586205
 30
0.0
 11
-1.615512620269342
 21
19.31316912846593
 31
0.0
  0
LINE
  5
1B858
330
1B826
100
AcDbEntity
  8
0
100
AcDbLine
 10
-1.914631728048617
 20
19.38940451920835
 30
0.0
 11
-1.914631728048617
 21
19.48586562586205
 31
0.0
  0
LINE
  5
1B859
330
1B826
100
AcDbEntity
  8
0
100
AcDbLine
 10
-1.790672458158106
 20
19.3106026422444
 30
0.0
 11
-1.705315181480031
 21
19.26132159557702
 31
0.0
  0
LINE
  5
1B85A
330
1B826
100
AcDbEntity
  8
0
100
AcDbLine
 10
-1.998169496887874
 20
19.43763507253521
 30
0.0
 11
-1.914631728048617
 21
19.48586562586205
 31
0.0
  0
LINE
  5
1B85B
330
1B826
100
AcDbEntity
  8
0
100
AcDbLine
 10
-1.790672458158106
 20
19.31783660136852
 30
0.0
 11
-1.998169496887874
 21
19.43763507253521
 31
0.0
  0
LINE
  5
1B85C
330
1B826
100
AcDbEntity
  8
0
100
AcDbLine
 10
-1.790672458158107
 20
19.2141415355907
 30
0.0
 11
-1.790672458158106
 21
19.31783660136852
 31
0.0
  0
LINE
  5
1B85D
330
1B826
100
AcDbEntity
  8
0
100
AcDbLine
 10
-1.921638121564167
 20
19.24222354034644
 30
0.0
 11
-1.790672458158106
 21
19.31783660136852
 31
0.0
  0
LINE
  5
1B85E
330
1B826
100
AcDbEntity
  8
0
100
AcDbLine
 10
-1.921638121564167
 20
19.16547482277175
 30
0.0
 11
-1.921638121564167
 21
19.24222354034644
 31
0.0
  0
LINE
  5
1B85F
330
1B826
100
AcDbEntity
  8
0
100
AcDbLine
 10
-1.880708048747699
 20
19.16215946312716
 30
0.0
 11
-1.790672458158107
 21
19.2141415355907
 31
0.0
  0
SPLINE
  5
1B860
330
1B826
100
AcDbEntity
  8
0
100
AcDbSpline
210
0.0
220
0.0
230
1.0
 70
     8
 71
     2
 72
     7
 73
     4
 74
     0
 42
0.000000001
 43
0.0000000001
 40
0.0
 40
0.0
 40
0.0
 40
1.0
 40
2.0
 40
2.0
 40
2.0
 10
-2.201354908838841
 20
19.31908126080922
 30
0.0
 10
-2.140453180588286
 20
19.28391963160965
 30
0.0
 10
-1.977689269688572
 20
19.24409052950748
 30
0.0
 10
-1.921638121564167
 20
19.24222354034644
 30
0.0
  0
LINE
  5
1B861
330
1B826
100
AcDbEntity
  8
0
100
AcDbLine
 10
-2.201354908838841
 20
19.22871001379424
 30
0.0
 11
-2.201354908838841
 21
19.31908126080922
 31
0.0
  0
SPLINE
  5
1B862
330
1B826
100
AcDbEntity
  8
0
100
AcDbSpline
210
0.0
220
0.0
230
1.0
 70
     8
 71
     2
 72
     8
 73
     5
 74
     0
 42
0.000000001
 43
0.0000000001
 40
0.0
 40
0.0
 40
0.0
 40
1.0
 40
2.0
 40
3.0
 40
3.0
 40
3.0
 10
-2.177102008208089
 20
19.63242427500363
 30
0.0
 10
-2.271418843994347
 20
19.57797042447333
 30
0.0
 10
-2.333937432286953
 20
19.46657340453132
 30
0.0
 10
-2.270879890646997
 20
19.35922152777157
 30
0.0
 10
-2.201354908838841
 20
19.31908126080923
 30
0.0
  0
SPLINE
  5
1B863
330
1B826
100
AcDbEntity
  8
0
100
AcDbSpline
210
0.0
220
0.0
230
1.0
 70
     8
 71
     3
 72
    12
 73
     8
 74
     0
 42
0.000000001
 43
0.0000000001
 40
-0.0318643190358509
 40
-0.0318643190358509
 40
-0.0318643190358509
 40
-0.0318643190358509
 40
-0.0318340221300762
 40
-0.0318340221300762
 40
-0.0168180803210339
 40
-0.0168180803210339
 40
-0.008595817006377
 40
-0.008595817006377
 40
-0.008595817006377
 40
-0.008595817006377
 10
-2.31824070573083
 20
19.36361870008181
 30
0.0
 10
-2.318240705365946
 20
19.36357847016283
 30
0.0
 10
-2.318240679703645
 20
19.36353823018908
 30
0.0
 10
-2.318215351307361
 20
19.34354901338913
 30
0.0
 10
-2.311921678692723
 20
19.32130097241114
 30
0.0
 10
-2.282524121591304
 20
19.27992487571921
 30
0.0
 10
-2.269880850875579
 20
19.26614490360091
 30
0.0
 10
-2.25504177851875
 20
19.25320883957572
 30
0.0
  0
SPLINE
  5
1B864
330
1B826
100
AcDbEntity
  8
0
100
AcDbSpline
210
0.0
220
0.0
230
1.0
 70
     8
 71
     2
 72
     6
 73
     3
 74
     0
 42
0.000000001
 43
0.0000000001
 40
0.0
 40
0.0
 40
0.0
 40
1.0
 40
1.0
 40
1.0
 10
-2.007870657140175
 20
19.69901355508069
 30
0.0
 10
-2.100570632884383
 20
19.67660968514822
 30
0.0
 10
-2.177102008208089
 20
19.63242427500363
 30
0.0
  0
SPLINE
  5
1B865
330
1B826
100
AcDbEntity
  8
0
100
AcDbSpline
210
0.0
220
0.0
230
1.0
 70
     8
 71
     2
 72
     8
 73
     5
 74
     0
 42
0.000000001
 43
0.0000000001
 40
0.0
 40
0.0
 40
0.0
 40
1.0
 40
2.0
 40
3.0
 40
3.0
 40
3.0
 10
-1.635992847468643
 20
19.6467378585716
 30
0.0
 10
-1.700128295803299
 20
19.6837664769322
 30
0.0
 10
-1.83271081925141
 20
19.71550529266987
 30
0.0
 10
-1.95397532240517
 20
19.71146014948762
 30
0.0
 10
-2.007870657140175
 20
19.69901355508069
 30
0.0
  0
LINE
  5
1B866
330
1B826
100
AcDbEntity
  8
0
100
AcDbLine
 10
-1.537788479340844
 20
19.42502573113946
 30
0.0
 11
-1.537788479340844
 21
19.52698630046231
 31
0.0
  0
LINE
  5
1B867
330
1B826
100
AcDbEntity
  8
0
100
AcDbLine
 10
-2.318240705183444
 20
19.36361870008182
 30
0.0
 11
-2.318240705183444
 21
19.46731376585965
 31
0.0
  0
SPLINE
  5
1B868
330
1B826
100
AcDbEntity
  8
0
100
AcDbSpline
210
0.0
220
0.0
230
1.0
 70
     8
 71
     3
 72
    12
 73
     8
 74
     0
 42
0.000000001
 43
0.0000000001
 40
0.0701625880555413
 40
0.0701625880555413
 40
0.0701625880555413
 40
0.0701625880555413
 40
0.0876266719572695
 40
0.0876266719572695
 40
0.1050907558589977
 40
0.1050907558589977
 40
0.121349748553623
 40
0.121349748553623
 40
0.121349748553623
 40
0.121349748553623
 10
-0.5111676140774783
 20
19.26996234183762
 30
0.0
 10
-0.454937581833617
 20
19.27866115809883
 30
0.0
 10
-0.3922243072194611
 20
19.27867165048755
 30
0.0
 10
-0.272717023577111
 20
19.25876794161357
 30
0.0
 10
-0.2159242089023018
 20
19.23883842783007
 30
0.0
 10
-0.1270606690216022
 20
19.18898139088156
 30
0.0
 10
-0.0891693016953936
 20
19.15747056028778
 30
0.0
 10
-0.0622418152746691
 20
19.12175939331397
 30
0.0
  0
SPLINE
  5
1B869
330
1B826
100
AcDbEntity
  8
0
100
AcDbSpline
210
0.0
220
0.0
230
1.0
 70
     8
 71
     3
 72
    18
 73
    14
 74
     0
 42
0.000000001
 43
0.0000000001
 40
0.028525742117437
 40
0.028525742117437
 40
0.028525742117437
 40
0.028525742117437
 40
0.0417123967319211
 40
0.0417123967319211
 40
0.0621425582382483
 40
0.0621425582382483
 40
0.0825727197445755
 40
0.0825727197445755
 40
0.1030028812509027
 40
0.1030028812509027
 40
0.1234330427572299
 40
0.1234330427572299
 40
0.1366196973717141
 40
0.1366196973717141
 40
0.1366196973717141
 40
0.1366196973717141
 10
-0.0622418152746691
 20
19.12175939331397
 30
0.0
 10
-0.0400439819450719
 20
19.09232068076188
 30
0.0
 10
-0.0140214533117344
 20
19.06497761503431
 30
0.0
 10
0.0570445641339862
 20
19.00350858705044
 30
0.0
 10
0.1118598605864516
 20
18.96812837574267
 30
0.0
 10
0.2348496768877823
 20
18.91345465715458
 30
0.0
 10
0.3030370704903646
 20
18.89423220190819
 30
0.0
 10
0.4345972080518195
 20
18.87387977779819
 30
0.0
 10
0.5082892553598316
 20
18.87115340715076
 30
0.0
 10
0.6541990676600898
 20
18.8842282084242
 30
0.0
 10
0.7264237010715366
 20
18.89995527418637
 30
0.0
 10
0.8306389434740168
 20
18.93430819690393
 30
0.0
 10
0.8720754077138082
 20
18.9512153201155
 30
0.0
 10
0.9116277604675691
 20
18.97110124563547
 30
0.0
  0
SPLINE
  5
1B86A
330
1B826
100
AcDbEntity
  8
0
100
AcDbSpline
210
0.0
220
0.0
230
1.0
 70
     8
 71
     3
 72
    12
 73
     8
 74
     0
 42
0.000000001
 43
0.0000000001
 40
0.0189754275574595
 40
0.0189754275574595
 40
0.0189754275574595
 40
0.0189754275574595
 40
0.0352344202520848
 40
0.0352344202520848
 40
0.052698504153813
 40
0.052698504153813
 40
0.0701625880555413
 40
0.0701625880555413
 40
0.0701625880555413
 40
0.0701625880555413
 10
0.9116277604675691
 20
18.97110124563547
 30
0.0
 10
0.9596074630750541
 20
18.99522423013814
 30
0.0
 10
1.01406998718736
 20
19.01244786400497
 30
0.0
 10
1.124801013903051
 20
19.03142751404343
 30
0.0
 10
1.187130518250475
 20
19.03292874094121
 30
0.0
 10
1.302416879772616
 20
19.01650974650022
 30
0.0
 10
1.355372652329688
 20
18.9986051902403
 30
0.0
 10
1.396535892843431
 20
18.97483958224897
 30
0.0
  0
ELLIPSE
  5
1B86B
330
1B826
100
AcDbEntity
  8
0
100
AcDbEllipse
 10
0.0000000000000008
 20
18.16854920858284
 30
0.0
 11
1.974999999999999
 21
-0.0000000000000006
 31
0.0
210
0.0
220
0.0
230
1.0
 40
0.5773502691896259
 41
0.7853981633974492
 42
1.832595714594045
  0
SPLINE
  5
1B86C
330
1B826
100
AcDbEntity
  8
0
100
AcDbSpline
210
0.0
220
0.0
230
1.0
 70
     8
 71
     3
 72
    12
 73
     8
 74
     0
 42
0.000000001
 43
0.0000000001
 40
0.0701625880555413
 40
0.0701625880555413
 40
0.0701625880555413
 40
0.0701625880555413
 40
0.0876266719572696
 40
0.0876266719572696
 40
0.1050907558589978
 40
0.1050907558589978
 40
0.1213497485536232
 40
0.1213497485536232
 40
0.1213497485536232
 40
0.1213497485536232
 10
-1.90770350692091
 20
18.4636719681715
 30
0.0
 10
-1.892636715190791
 20
18.49613639242403
 30
0.0
 10
-1.863627901182035
 20
18.52672091435372
 30
0.0
 10
-1.783453349248283
 20
18.57337781733843
 30
0.0
 10
-1.73228829558277
 20
18.58943425966837
 30
0.0
 10
-1.629360071217626
 20
18.60350781080182
 30
0.0
 10
-1.572919579672875
 20
18.60344093316502
 30
0.0
 10
-1.51674378344539
 20
18.59543086040728
 30
0.0
  0
SPLINE
  5
1B86D
330
1B826
100
AcDbEntity
  8
0
100
AcDbSpline
210
0.0
220
0.0
230
1.0
 70
     8
 71
     3
 72
    18
 73
    14
 74
     0
 42
0.000000001
 43
0.0000000001
 40
0.028525742117437
 40
0.028525742117437
 40
0.028525742117437
 40
0.028525742117437
 40
0.0417123967319211
 40
0.0417123967319211
 40
0.0621425582382483
 40
0.0621425582382483
 40
0.0825727197445755
 40
0.0825727197445755
 40
0.1030028812509027
 40
0.1030028812509027
 40
0.1234330427572299
 40
0.1234330427572299
 40
0.136619697371714
 40
0.136619697371714
 40
0.136619697371714
 40
0.136619697371714
 10
-1.51674378344539
 20
18.59543086040728
 30
0.0
 10
-1.470434932246587
 20
18.58882770936466
 30
0.0
 10
-1.424687399530595
 20
18.5854079974202
 30
0.0
 10
-1.315247322212113
 20
18.58410766769107
 30
0.0
 10
-1.244965884037916
 20
18.59042636792552
 30
0.0
 10
-1.115232492112361
 20
18.61999371874638
 30
0.0
 10
-1.055781515663697
 20
18.64331738685041
 30
0.0
 10
-0.9594728107179616
 20
18.69892124357614
 30
0.0
 10
-0.9150608278706041
 20
18.73556288298049
 30
0.0
 10
-0.8479460295233952
 20
18.8196458878031
 30
0.0
 10
-0.8252277844472216
 20
18.8670205797278
 30
0.0
 10
-0.8063530739421375
 20
18.94240348674788
 30
0.0
 10
-0.8027171964475726
 20
18.97433472387091
 30
0.0
 10
-0.8038217740565251
 20
19.00703657443915
 30
0.0
  0
SPLINE
  5
1B86E
330
1B826
100
AcDbEntity
  8
0
100
AcDbSpline
210
0.0
220
0.0
230
1.0
 70
     8
 71
     3
 72
    12
 73
     8
 74
     0
 42
0.000000001
 43
0.0000000001
 40
0.0189754275574595
 40
0.0189754275574595
 40
0.0189754275574595
 40
0.0189754275574595
 40
0.0352344202520847
 40
0.0352344202520847
 40
0.052698504153813
 40
0.052698504153813
 40
0.0701625880555413
 40
0.0701625880555413
 40
0.0701625880555413
 40
0.0701625880555413
 10
-0.8038217740565251
 20
19.00703657443915
 30
0.0
 10
-0.8051617020631942
 20
19.04670615047542
 30
0.0
 10
-0.7939944527982521
 20
19.08580637546801
 30
0.0
 10
-0.7508093135001487
 20
19.15609141417774
 30
0.0
 10
-0.7147707773259584
 20
19.19038198791605
 30
0.0
 10
-0.6230644517050039
 20
19.2429605558561
 30
0.0
 10
-0.56739764632134
 20
19.26126352557642
 30
0.0
 10
-0.5111676140774783
 20
19.26996234183762
 30
0.0
  0
ELLIPSE
  5
1B86F
330
1B826
100
AcDbEntity
  8
0
100
AcDbEllipse
 10
0.0000000000000008
 20
18.16854920858284
 30
0.0
 11
-1.975
 21
0.0000000000000003
 31
0.0
210
0.0
220
0.0
230
1.0
 40
0.5773502691896258
 41
4.974188368183839
 42
6.021385919380437
  0
SPLINE
  5
1B870
330
1B826
100
AcDbEntity
  8
0
100
AcDbSpline
210
0.0
220
0.0
230
1.0
 70
     8
 71
     3
 72
     8
 73
     4
 74
     0
 42
0.000000001
 43
0.0000000001
 40
0.1208309966638754
 40
0.1208309966638754
 40
0.1208309966638754
 40
0.1208309966638754
 40
0.1213497485536227
 40
0.1213497485536227
 40
0.1213497485536227
 40
0.1213497485536227
 10
-1.457268808394893
 20
17.60304329286594
 30
0.0
 10
-1.456357442842429
 20
17.60370519466677
 30
0.0
 10
-1.455435151195593
 20
17.60436267488683
 30
0.0
 10
-1.45450196817072
 20
17.60501560986858
 30
0.0
  0
SPLINE
  5
1B871
330
1B826
100
AcDbEntity
  8
0
100
AcDbSpline
210
0.0
220
0.0
230
1.0
 70
     8
 71
     3
 72
    18
 73
    14
 74
     0
 42
0.000000001
 43
0.0000000001
 40
0.028525742117437
 40
0.028525742117437
 40
0.028525742117437
 40
0.028525742117437
 40
0.0417123967319211
 40
0.0417123967319211
 40
0.0621425582382483
 40
0.0621425582382483
 40
0.0825727197445755
 40
0.0825727197445755
 40
0.1030028812509027
 40
0.1030028812509027
 40
0.1234330427572299
 40
0.1234330427572299
 40
0.136619697371714
 40
0.136619697371714
 40
0.136619697371714
 40
0.136619697371714
 10
-1.45450196817072
 20
17.60501560986858
 30
0.0
 10
-1.430390950301514
 20
17.62188574851529
 30
0.0
 10
-1.410665946218859
 20
17.64029021550372
 30
0.0
 10
-1.372291886346098
 20
17.68826126483833
 30
0.0
 10
-1.356825744624367
 20
17.72316249170476
 30
0.0
 10
-1.350082169000143
 20
17.79822216504221
 30
0.0
 10
-1.358818586154061
 20
17.83845068624449
 30
0.0
 10
-1.39407001876978
 20
17.91440696708023
 30
0.0
 10
-1.423350083230435
 20
17.95609257928015
 30
0.0
 10
-1.502145097183484
 20
18.03628217890081
 30
0.0
 10
-1.551651485518757
 20
18.07472748973914
 30
0.0
 10
-1.636992017416153
 20
18.12795512296179
 30
0.0
 10
-1.67479260416138
 20
18.14849812366792
 30
0.0
 10
-1.715449534524092
 20
18.16727947157895
 30
0.0
  0
SPLINE
  5
1B872
330
1B826
100
AcDbEntity
  8
0
100
AcDbSpline
210
0.0
220
0.0
230
1.0
 70
     8
 71
     3
 72
    12
 73
     8
 74
     0
 42
0.000000001
 43
0.0000000001
 40
0.0189754275574596
 40
0.0189754275574596
 40
0.0189754275574596
 40
0.0189754275574596
 40
0.0352344202520848
 40
0.0352344202520848
 40
0.0526985041538131
 40
0.0526985041538131
 40
0.0701625880555413
 40
0.0701625880555413
 40
0.0701625880555413
 40
0.0701625880555413
 10
-1.715449534524092
 20
18.16727947157895
 30
0.0
 10
-1.764769165138247
 20
18.19006252807495
 30
0.0
 10
-1.808064439985612
 20
18.21845341120672
 30
0.0
 10
-1.875610327403199
 20
18.28061820054329
 30
0.0
 10
-1.901901295576433
 20
18.31815796361525
 30
0.0
 10
-1.925481331477619
 20
18.39344529479522
 30
0.0
 10
-1.922770298651028
 20
18.43120754391896
 30
0.0
 10
-1.90770350692091
 20
18.4636719681715
 30
0.0
  0
ELLIPSE
  5
1B873
330
1B826
100
AcDbEntity
  8
0
100
AcDbEllipse
 10
0.0000000000000008
 20
18.16854920858284
 30
0.0
 11
-1.974999999999999
 21
0.0000000000000003
 31
0.0
210
0.0
220
0.0
230
1.0
 40
0.5773502691896258
 41
6.021385919380437
 42
6.193558171728797
  0
SPLINE
  5
1B874
330
1B826
100
AcDbEntity
  8
0
100
AcDbSpline
210
0.0
220
0.0
230
1.0
 70
     8
 71
     3
 72
    14
 73
    10
 74
     0
 42
0.000000001
 43
0.0000000001
 40
0.0560019654545527
 40
0.0560019654545527
 40
0.0560019654545527
 40
0.0560019654545527
 40
0.0621425582382483
 40
0.0621425582382483
 40
0.0825727197445755
 40
0.0825727197445755
 40
0.1030028812509027
 40
0.1030028812509027
 40
0.1174535963263889
 40
0.1174535963263889
 40
0.1174535963263889
 40
0.1174535963263889
 10
-0.1198497070333082
 20
17.23448005165704
 30
0.0
 10
-0.1369917586585463
 20
17.24051441488119
 30
0.0
 10
-0.1548715477842582
 20
17.24629918857336
 30
0.0
 10
-0.2348496768877803
 20
17.26991154974624
 30
0.0
 10
-0.3030370704903627
 20
17.28449880069635
 30
0.0
 10
-0.4345972080518179
 20
17.30485122480636
 30
0.0
 10
-0.5082892553598305
 20
17.31221279975006
 30
0.0
 10
-0.6328468158408052
 20
17.31672695292574
 30
0.0
 10
-0.6840841108728211
 20
17.3162078068742
 30
0.0
 10
-0.732068773473822
 20
17.31360219721477
 30
0.0
  0
SPLINE
  5
1B875
330
1B826
100
AcDbEntity
  8
0
100
AcDbSpline
210
0.0
220
0.0
230
1.0
 70
     8
 71
     3
 72
     8
 73
     4
 74
     0
 42
0.000000001
 43
0.0000000001
 40
0.1171568331781044
 40
0.1171568331781044
 40
0.1171568331781044
 40
0.1171568331781044
 40
0.121349748553623
 40
0.121349748553623
 40
0.121349748553623
 40
0.121349748553623
 10
1.560135490984934
 20
17.67351619800239
 30
0.0
 10
1.545734935500765
 20
17.67102294183166
 30
0.0
 10
1.531230557882043
 20
17.66892408516915
 30
0.0
 10
1.51674378344539
 20
17.66725742514325
 30
0.0
  0
SPLINE
  5
1B876
330
1B826
100
AcDbEntity
  8
0
100
AcDbSpline
210
0.0
220
0.0
230
1.0
 70
     8
 71
     3
 72
    16
 73
    12
 74
     0
 42
0.000000001
 43
0.0000000001
 40
0.0285257421174369
 40
0.0285257421174369
 40
0.0285257421174369
 40
0.0285257421174369
 40
0.0417123967319208
 40
0.0417123967319208
 40
0.0621425582382479
 40
0.0621425582382479
 40
0.082572719744575
 40
0.082572719744575
 40
0.1030028812509022
 40
0.1030028812509022
 40
0.119437848346113
 40
0.119437848346113
 40
0.119437848346113
 40
0.119437848346113
 10
1.51674378344539
 20
17.66725742514325
 30
0.0
 10
1.470434932246588
 20
17.66192973046036
 30
0.0
 10
1.424687399530597
 20
17.65431166881545
 30
0.0
 10
1.315247322212116
 20
17.63121670070434
 30
0.0
 10
1.244965884037919
 20
17.6113026311183
 30
0.0
 10
1.115232492112365
 20
17.56337248815443
 30
0.0
 10
1.055781515663701
 20
17.53541361575413
 30
0.0
 10
0.9594728107179662
 20
17.4798097590284
 30
0.0
 10
0.9150608278706091
 20
17.44780332392032
 30
0.0
 10
0.8545083043046572
 20
17.38850902780319
 30
0.0
 10
0.8345275628005508
 20
17.36147998213954
 30
0.0
 10
0.8217737291562054
 20
17.33578823711538
 30
0.0
  0
SPLINE
  5
1B877
330
1B826
100
AcDbEntity
  8
0
100
AcDbSpline
210
0.0
220
0.0
230
1.0
 70
     8
 71
     3
 72
    10
 73
     6
 74
     0
 42
0.000000001
 43
0.0000000001
 40
0.0189754275574595
 40
0.0189754275574595
 40
0.0189754275574595
 40
0.0189754275574595
 40
0.0352344202520848
 40
0.0352344202520848
 40
0.0425305134940945
 40
0.0425305134940945
 40
0.0425305134940945
 40
0.0425305134940945
 10
1.715449534524094
 20
18.09540881397159
 30
0.0
 10
1.764769165138248
 20
18.08709868740038
 30
0.0
 10
1.808064439985612
 20
18.07173638828064
 30
0.0
 10
1.855244274786319
 20
18.04348544502669
 30
0.0
 10
1.868341507812571
 20
18.03349678620106
 30
0.0
 10
1.879498403777083
 20
18.02254559039994
 30
0.0
  0
ELLIPSE
  5
1B878
330
1B826
100
AcDbEntity
  8
0
100
AcDbEllipse
 10
0.0000000000000008
 20
18.16854920858284
 30
0.0
 11
1.974999999999999
 21
-0.0000000000000001
 31
0.0
210
0.0
220
0.0
230
1.0
 40
0.5773502691896259
 41
0.0896271354507867
 42
0.7853981633974483
  0
SPLINE
  5
1B879
330
1B826
100
AcDbEntity
  8
0
100
AcDbSpline
210
0.0
220
0.0
230
1.0
 70
     8
 71
     3
 72
    12
 73
     8
 74
     0
 42
0.000000001
 43
0.0000000001
 40
0.0701625880555413
 40
0.0701625880555413
 40
0.0701625880555413
 40
0.0701625880555413
 40
0.0876266719572695
 40
0.0876266719572695
 40
0.1050907558589977
 40
0.1050907558589977
 40
0.121349748553623
 40
0.121349748553623
 40
0.121349748553623
 40
0.121349748553623
 10
1.396535892843431
 20
18.97483958224897
 30
0.0
 10
1.437699133357174
 20
18.95107397425765
 30
0.0
 10
1.471403593962573
 20
18.91894522157318
 30
0.0
 10
1.510736325671171
 20
18.84609484091555
 30
0.0
 10
1.516364086680468
 20
18.80535846857068
 30
0.0
 10
1.502299402196024
 20
18.73056847982342
 30
0.0
 10
1.483750277977482
 20
18.69261023486042
 30
0.0
 10
1.454501968170721
 20
18.65767267568195
 30
0.0
  0
SPLINE
  5
1B87A
330
1B826
100
AcDbEntity
  8
0
100
AcDbSpline
210
0.0
220
0.0
230
1.0
 70
     8
 71
     3
 72
    18
 73
    14
 74
     0
 42
0.000000001
 43
0.0000000001
 40
0.028525742117437
 40
0.028525742117437
 40
0.028525742117437
 40
0.028525742117437
 40
0.0417123967319211
 40
0.0417123967319211
 40
0.0621425582382483
 40
0.0621425582382483
 40
0.0825727197445755
 40
0.0825727197445755
 40
0.1030028812509027
 40
0.1030028812509027
 40
0.1234330427572299
 40
0.1234330427572299
 40
0.1366196973717139
 40
0.1366196973717139
 40
0.1366196973717139
 40
0.1366196973717139
 10
1.454501968170721
 20
18.65767267568195
 30
0.0
 10
1.430390950301516
 20
18.62887169130973
 30
0.0
 10
1.410665946218861
 20
18.59942945073194
 30
0.0
 10
1.3722918863461
 20
18.52706310355708
 30
0.0
 10
1.356825744624369
 20
18.47856650733907
 30
0.0
 10
1.350082169000144
 20
18.3851440418586
 30
0.0
 10
1.358818586154062
 20
18.34028031636005
 30
0.0
 10
1.394070018769782
 20
18.26432403552432
 30
0.0
 10
1.423350083230437
 20
18.22727362762066
 30
0.0
 10
1.502145097183486
 20
18.16544682014301
 30
0.0
 10
1.551651485518759
 20
18.14059687865627
 30
0.0
 10
1.636992017416155
 20
18.11176454327387
 30
0.0
 10
1.674792604161381
 20
18.1022593161571
 30
0.0
 10
1.715449534524094
 20
18.09540881397159
 30
0.0
  0
LINE
  5
1B87B
330
1B826
100
AcDbEntity
  8
0
100
AcDbLine
 10
-1.45450196817072
 20
17.60501560986858
 30
0.0
 11
-1.45450196817072
 21
17.60130033022038
 31
0.0
  0
LINE
  5
1B87C
330
1B826
100
AcDbEntity
  8
0
100
AcDbLine
 10
1.715449534524094
 20
18.09540881397159
 30
0.0
 11
1.715449534524094
 21
17.80761940521014
 31
0.0
  0
LINE
  5
1B87D
330
1B826
100
AcDbEntity
  8
0
100
AcDbLine
 10
0.9116277604675691
 20
18.97110124563547
 30
0.0
 11
0.9116277604675687
 21
17.52999474697768
 31
0.0
  0
SPLINE
  5
1B87E
330
1B826
100
AcDbEntity
  8
0
100
AcDbSpline
210
0.0
220
0.0
230
1.0
 70
     8
 71
     3
 72
    10
 73
     6
 74
     0
 42
0.000000001
 43
0.0000000001
 40
0.1936658524217636
 40
0.1936658524217636
 40
0.1936658524217636
 40
0.1936658524217636
 40
0.2051185765580948
 40
0.2051185765580948
 40
0.22137756925272
 40
0.22137756925272
 40
0.22137756925272
 40
0.22137756925272
 10
1.183977858714022
 20
17.58869493896866
 30
0.0
 10
1.144811997265841
 20
17.58980207175137
 30
0.0
 10
1.105062481539969
 20
17.58693776818171
 30
0.0
 10
1.01406998718736
 20
17.57134136534718
 30
0.0
 10
0.9596074630750539
 20
17.55411773148035
 30
0.0
 10
0.9116277604675687
 20
17.52999474697768
 30
0.0
  0
LINE
  5
1B87F
330
1B826
100
AcDbEntity
  8
0
100
AcDbLine
 10
-1.51674378344539
 20
18.59543086040728
 30
0.0
 11
-1.51674378344539
 21
18.04525903963217
 31
0.0
  0
SPLINE
  5
1B880
330
1B826
100
AcDbEntity
  8
0
100
AcDbSpline
210
0.0
220
0.0
230
1.0
 70
     8
 71
     3
 72
    10
 73
     6
 74
     0
 42
0.000000001
 43
0.0000000001
 40
0.2893731803585742
 40
0.2893731803585742
 40
0.2893731803585742
 40
0.2893731803585742
 40
0.3009806978249028
 40
0.3009806978249028
 40
0.3193366785356765
 40
0.3193366785356765
 40
0.3193366785356765
 40
0.3193366785356765
 10
-0.8036272200055771
 20
17.55421755875184
 30
0.0
 10
-0.8036420441056785
 20
17.52561438535
 30
0.0
 10
-0.8072397062874536
 20
17.49775590471136
 30
0.0
 10
-0.8240632017600757
 20
17.43056525854893
 30
0.0
 10
-0.8434490021783194
 20
17.38814276276482
 30
0.0
 10
-0.8716182393057867
 20
17.3494604295439
 30
0.0
  0
SPLINE
  5
1B881
330
1B826
100
AcDbEntity
  8
0
100
AcDbSpline
210
0.0
220
0.0
230
1.0
 70
     8
 71
     3
 72
    18
 73
    14
 74
     0
 42
0.000000001
 43
0.0000000001
 40
0.1190032482565566
 40
0.1190032482565566
 40
0.1190032482565566
 40
0.1190032482565566
 40
0.1352622409511818
 40
0.1352622409511818
 40
0.15272632485291
 40
0.15272632485291
 40
0.1701904087546383
 40
0.1701904087546383
 40
0.1876544926563665
 40
0.1876544926563665
 40
0.2051185765580948
 40
0.2051185765580948
 40
0.2189579795830248
 40
0.2189579795830248
 40
0.2189579795830248
 40
0.2189579795830248
 10
-0.0622418152746695
 20
17.68065289465618
 30
0.0
 10
-0.0891693016953937
 20
17.71636406162999
 30
0.0
 10
-0.1270606690216025
 20
17.74787489222377
 30
0.0
 10
-0.2159242089023023
 20
17.79773192917227
 30
0.0
 10
-0.2727170235771121
 20
17.81766144295578
 30
0.0
 10
-0.3922243072194626
 20
17.83756515182976
 30
0.0
 10
-0.4549375818336174
 20
17.83755465944104
 30
0.0
 10
-0.5673976463213403
 20
17.82015702691863
 30
0.0
 10
-0.623064451705004
 20
17.8018540571983
 30
0.0
 10
-0.7147707773259587
 20
17.74927548925826
 30
0.0
 10
-0.750809313500149
 20
17.71498491551994
 30
0.0
 10
-0.790895971654888
 20
17.64974274272757
 30
0.0
 10
-0.8016241915934884
 20
17.61712162982322
 30
0.0
 10
-0.8035984306850787
 20
17.58358728351954
 30
0.0
  0
LINE
  5
1B882
330
1B826
100
AcDbEntity
  8
0
100
AcDbLine
 10
-0.0622418152746691
 20
19.12175939331397
 30
0.0
 11
-0.0622418152746695
 21
17.68065289465618
 31
0.0
  0
SPLINE
  5
1B883
330
1B826
100
AcDbEntity
  8
0
100
AcDbSpline
210
0.0
220
0.0
230
1.0
 70
     8
 71
     3
 72
    18
 73
    14
 74
     0
 42
0.000000001
 43
0.0000000001
 40
0.2877940432104187
 40
0.2877940432104187
 40
0.2877940432104187
 40
0.2877940432104187
 40
0.3009806978249028
 40
0.3009806978249028
 40
0.32141085933123
 40
0.32141085933123
 40
0.3418410208375572
 40
0.3418410208375572
 40
0.3622711823438844
 40
0.3622711823438844
 40
0.3827013438502116
 40
0.3827013438502116
 40
0.3958879984646957
 40
0.3958879984646957
 40
0.3958879984646957
 40
0.3958879984646957
 10
0.9116277604675687
 20
17.52999474697768
 30
0.0
 10
0.872075407713808
 20
17.5101088214577
 30
0.0
 10
0.8306389434740168
 20
17.49320169824613
 30
0.0
 10
0.7264237010715366
 20
17.45884877552857
 30
0.0
 10
0.6541990676600901
 20
17.44312170976641
 30
0.0
 10
0.5082892553598319
 20
17.43004690849296
 30
0.0
 10
0.4345972080518194
 20
17.43277327914039
 30
0.0
 10
0.3030370704903643
 20
17.4531257032504
 30
0.0
 10
0.2348496768877821
 20
17.47234815849678
 30
0.0
 10
0.1118598605864516
 20
17.52702187708488
 30
0.0
 10
0.0570445641339858
 20
17.56240208839265
 30
0.0
 10
-0.0140214533117348
 20
17.62387111637652
 30
0.0
 10
-0.0400439819450722
 20
17.65121418210409
 30
0.0
 10
-0.0622418152746695
 20
17.68065289465618
 30
0.0
  0
LINE
  5
1B884
330
1B826
100
AcDbEntity
  8
0
100
AcDbLine
 10
-1.352711255005133
 20
17.7773750637007
 30
0.0
 11
-1.352711255005133
 21
17.54185101809704
 31
0.0
  0
LINE
  5
1B885
330
1B826
100
AcDbEntity
  8
0
100
AcDbLine
 10
1.352711255005135
 20
18.41140673263215
 30
0.0
 11
1.352711255005135
 21
17.63881849296108
 31
0.0
  0
LINE
  5
1B886
330
1B826
100
AcDbEntity
  8
0
100
AcDbLine
 10
-0.8036237229066511
 20
18.99532380084849
 30
0.0
 11
-0.8036237229066514
 21
17.5542173021907
 31
0.0
  0
ELLIPSE
  5
1B887
330
1B826
100
AcDbEntity
  8
0
100
AcDbEllipse
 10
0.0000000000000009
 20
18.37267335381478
 30
0.0
 11
1.974999999999999
 21
-0.0000000000000001
 31
0.0
210
0.0
220
0.0
230
1.0
 40
0.5773502691896259
 41
0.0
 42
6.283185307179586
  0
ELLIPSE
  5
1B888
330
1B826
100
AcDbEntity
  8
0
100
AcDbEllipse
 10
0.0000000000000009
 20
18.37267335381478
 30
0.0
 11
-3.5
 21
-0.0000000000002086
 31
0.0
210
0.0
220
0.0
230
1.0
 40
0.5773502691896258
 41
0.0
 42
6.283185307179586
  0
ELLIPSE
  5
1B889
330
1B826
100
AcDbEntity
  8
0
100
AcDbEllipse
 10
0.0000000000000004
 20
15.27333561948063
 30
0.0
 11
1.500000000000001
 21
0.0000000000000896
 31
0.0
210
0.0
220
0.0
230
1.0
 40
0.577350269189626
 41
4.17151940067648
 42
5.253258560092674
  0
ELLIPSE
  5
1B88A
330
1B826
100
AcDbEntity
  8
0
100
AcDbEllipse
 10
0.0000000000000008
 20
17.96442506335091
 30
0.0
 11
3.5
 21
0.0000000000002086
 31
0.0
210
0.0
220
0.0
230
1.0
 40
0.5773502691896258
 41
4.024021462679494
 42
5.40075649808951
  0
ELLIPSE
  5
1B88B
330
1B826
100
AcDbEntity
  8
0
100
AcDbEllipse
 10
0.0000000000000008
 20
17.96442506335091
 30
0.0
 11
3.5
 21
-0.0000000000000006
 31
0.0
210
0.0
220
0.0
230
1.0
 40
0.5773502691896258
 41
5.594817789474578
 42
6.283185307179585
  0
ELLIPSE
  5
1B88C
330
1B826
100
AcDbEntity
  8
0
100
AcDbEllipse
 10
0.0000000000000008
 20
17.96442506335091
 30
0.0
 11
-3.5
 21
0.0000000000000005
 31
0.0
210
0.0
220
0.0
230
1.0
 40
0.5773502691896259
 41
0.0000000000000003
 42
0.6883675177050089
  0
ELLIPSE
  5
1B88D
330
1B826
100
AcDbEntity
  8
0
100
AcDbEllipse
 10
-0.000000000000002
 20
0.5730478895903435
 30
0.0
 11
-1.499999999999999
 21
0.0
 31
0.0
210
0.0
220
0.0
230
1.0
 40
0.5773502691896259
 41
0.0000000000000007
 42
3.141592653589794
  0
ELLIPSE
  5
1B88E
330
1B826
100
AcDbEntity
  8
0
100
AcDbEllipse
 10
-0.0000000000000041
 20
-13.15250120416266
 30
0.0
 11
-1.299999999999997
 21
0.0000000000000001
 31
0.0
210
0.0
220
0.0
230
1.0
 40
0.577350269189626
 41
0.0000000000000007
 42
0.1976903512542458
  0
ELLIPSE
  5
1B88F
330
1B826
100
AcDbEntity
  8
0
100
AcDbEllipse
 10
-0.0000000000000041
 20
-13.15250120416266
 30
0.0
 11
1.299999999999997
 21
-0.0000000000000001
 31
0.0
210
0.0
220
0.0
230
1.0
 40
0.5773502691896261
 41
4.911299601962275
 42
5.661992135798232
  0
ELLIPSE
  5
1B890
330
1B826
100
AcDbEntity
  8
0
100
AcDbEllipse
 10
-0.000000000000002
 20
0.4097485734047979
 30
0.0
 11
1.299999999999999
 21
0.0000000000000775
 31
0.0
210
0.0
220
0.0
230
1.0
 40
0.577350269189626
 41
3.926990816987
 42
5.497787143781895
  0
LINE
  5
1B891
330
1B826
100
AcDbEntity
  8
0
100
AcDbLine
 10
2.621055839634434
 20
16.44060678666976
 30
0.0
 11
3.161427849859234
 21
17.09736605918137
 31
0.0
  0
LINE
  5
1B892
330
1B826
100
AcDbEntity
  8
0
100
AcDbLine
 10
-2.621055839634432
 20
16.44060678666976
 30
0.0
 11
-3.161427849859232
 21
17.09736605918137
 31
0.0
  0
LINE
  5
1B893
330
1B826
100
AcDbEntity
  8
0
100
AcDbLine
 10
-3.5
 20
17.96442506335091
 30
0.0
 11
-3.5
 21
18.37267335381478
 31
0.0
  0
LINE
  5
1B894
330
1B826
100
AcDbEntity
  8
0
100
AcDbLine
 10
3.500000000000001
 20
17.96442506335091
 30
0.0
 11
3.500000000000001
 21
18.37267335381478
 31
0.0
  0
LINE
  5
1B895
330
1B826
100
AcDbEntity
  8
0
100
AcDbLine
 10
-1.500000000000002
 20
0.5730478895903435
 30
0.0
 11
-1.5
 21
14.73180743187153
 31
0.0
  0
LINE
  5
1B896
330
1B826
100
AcDbEntity
  8
0
100
AcDbLine
 10
1.499999999999998
 20
0.5730478895903435
 30
0.0
 11
1.500000000000001
 21
14.73180743187153
 31
0.0
  0
LINE
  5
1B897
330
1B826
100
AcDbEntity
  8
0
100
AcDbLine
 10
0.0
 20
-18.3696727879329
 30
0.0
 11
-0.5542768894437657
 21
-16.16838304381616
 31
0.0
  0
LINE
  5
1B898
330
1B826
100
AcDbEntity
  8
0
100
AcDbLine
 10
-1.281422474465298
 20
-13.28055180049299
 30
0.0
 11
-1.2864769923209
 21
-13.26047797362252
 31
0.0
  0
LINE
  5
1B899
330
1B826
100
AcDbEntity
  8
0
100
AcDbLine
 10
-0.673508303290519
 20
-15.69485998435613
 30
0.0
 11
-1.112965722902014
 21
-13.94957143058367
 31
0.0
  0
LINE
  5
1B89A
330
1B826
100
AcDbEntity
  8
0
100
AcDbLine
 10
-1.300000000000002
 20
-13.15250120416266
 30
0.0
 11
-1.300000000000002
 21
-11.60925098702655
 31
0.0
  0
LINE
  5
1B89B
330
1B826
100
AcDbEntity
  8
0
100
AcDbLine
 10
-1.300000000000002
 20
-10.63207406259455
 30
0.0
 11
-1.300000000000002
 21
-9.159761244243377
 31
0.0
  0
LINE
  5
1B89C
330
1B826
100
AcDbEntity
  8
0
100
AcDbLine
 10
-1.300000000000002
 20
-8.182584319811372
 30
0.0
 11
-1.300000000000001
 21
-6.710271501460196
 31
0.0
  0
LINE
  5
1B89D
330
1B826
100
AcDbEntity
  8
0
100
AcDbLine
 10
-1.300000000000001
 20
-5.733094577028192
 30
0.0
 11
-1.300000000000001
 21
-4.260781758677016
 31
0.0
  0
LINE
  5
1B89E
330
1B826
100
AcDbEntity
  8
0
100
AcDbLine
 10
-1.300000000000001
 20
-3.283604834245013
 30
0.0
 11
-1.3
 21
-1.811292015893837
 31
0.0
  0
LINE
  5
1B89F
330
1B826
100
AcDbEntity
  8
0
100
AcDbLine
 10
-1.3
 20
-0.8341150914618356
 30
0.0
 11
-1.3
 21
0.1409985096964861
 31
0.0
  0
LINE
  5
1B8A0
330
1B826
100
AcDbEntity
  8
0
100
AcDbLine
 10
1.299999999999994
 20
-11.26932668658767
 30
0.0
 11
1.299999999999994
 21
-11.0887804143147
 31
0.0
  0
LINE
  5
1B8A1
330
1B826
100
AcDbEntity
  8
0
100
AcDbLine
 10
1.299999999999994
 20
-9.407329191202959
 30
0.0
 11
1.299999999999994
 21
-8.639290671531526
 31
0.0
  0
LINE
  5
1B8A2
330
1B826
100
AcDbEntity
  8
0
100
AcDbLine
 10
1.299999999999995
 20
-6.957839448419784
 30
0.0
 11
1.299999999999995
 21
-6.189800928748345
 31
0.0
  0
LINE
  5
1B8A3
330
1B826
100
AcDbEntity
  8
0
100
AcDbLine
 10
1.299999999999995
 20
-4.508349705636605
 30
0.0
 11
1.299999999999996
 21
-3.740311185965166
 31
0.0
  0
LINE
  5
1B8A4
330
1B826
100
AcDbEntity
  8
0
100
AcDbLine
 10
1.299999999999996
 20
-2.058859962853425
 30
0.0
 11
1.299999999999996
 21
-1.115341452348046
 31
0.0
  0
LINE
  5
1B8A5
330
1B826
100
AcDbEntity
  8
0
100
AcDbLine
 10
-0.9192388155425145
 20
-0.1209742041982231
 30
0.0
 11
-1.060660171779824
 21
-0.0393245461054503
 31
0.0
  0
LINE
  5
1B8A6
330
1B826
100
AcDbEntity
  8
0
100
AcDbLine
 10
0.9192388155425101
 20
-0.1209742041982231
 30
0.0
 11
1.060660171779819
 21
-0.0393245461054503
 31
0.0
  0
SPLINE
  5
1B8A7
330
1B826
100
AcDbEntity
  8
0
100
AcDbSpline
210
0.0
220
0.0
230
1.0
 70
     8
 71
     3
 72
    14
 73
    10
 74
     0
 42
0.000000001
 43
0.0000000001
 40
1.351427378112076
 40
1.351427378112076
 40
1.351427378112076
 40
1.351427378112076
 40
2.485818540050964
 40
2.485818540050964
 40
2.485818540050964
 40
3.654166695700582
 40
3.654166695700582
 40
3.654166695700582
 40
4.634019718848055
 40
4.634019718848055
 40
4.634019718848055
 40
4.634019718848055
 10
1.676446247227353
 20
-13.0695909147662
 30
0.0
 10
1.246799055920945
 20
-13.57313877782319
 30
0.0
 10
0.4604284949153298
 20
-13.90346520760578
 30
0.0
 10
-0.2443969148657116
 20
-13.97929792669806
 30
0.0
 10
-0.9703206484085418
 20
-14.05740063100504
 30
0.0
 10
-1.569552272045794
 20
-13.87253876743302
 30
0.0
 10
-1.726063469454549
 20
-13.63116111844192
 30
0.0
 10
-1.857323975319884
 20
-13.42872606692028
 30
0.0
 10
-1.675894327586743
 20
-13.20339607379591
 30
0.0
 10
-1.298001591773416
 20
-13.09381986341927
 30
0.0
  0
SPLINE
  5
1B8A8
330
1B826
100
AcDbEntity
  8
0
100
AcDbSpline
210
0.0
220
0.0
230
1.0
 70
     8
 71
     3
 72
     8
 73
     4
 74
     0
 42
0.000000001
 43
0.0000000001
 40
6.21203868088751
 40
6.21203868088751
 40
6.21203868088751
 40
6.21203868088751
 40
6.28318530717958
 40
6.28318530717958
 40
6.28318530717958
 40
6.28318530717958
 10
1.033011957930954
 20
-13.66156623033175
 30
0.0
 10
1.059967364661704
 20
-13.68582465881452
 30
0.0
 10
1.085944966165599
 20
-13.71060931347914
 30
0.0
 10
1.110878229196423
 20
-13.73588023089079
 30
0.0
  0
SPLINE
  5
1B8A9
330
1B826
100
AcDbEntity
  8
0
100
AcDbSpline
210
0.0
220
0.0
230
1.0
 70
     8
 71
     3
 72
    20
 73
    16
 74
     0
 42
0.000000001
 43
0.0000000001
 40
0.0
 40
0.0
 40
0.0
 40
0.0
 40
0.0591303055810815
 40
0.0591303055810815
 40
0.1182606111621631
 40
0.1182606111621631
 40
0.1773909167432446
 40
0.1773909167432446
 40
0.2365212223243262
 40
0.2365212223243262
 40
0.2956515279054078
 40
0.2956515279054078
 40
0.3547818334864894
 40
0.3547818334864894
 40
0.3704671741147802
 40
0.3704671741147802
 40
0.3704671741147802
 40
0.3704671741147802
 10
-1.274679665653767
 20
-13.29991417280156
 30
0.0
 10
-1.238794874230806
 20
-13.34297713560543
 30
0.0
 10
-1.165542210880599
 20
-13.38118076003098
 30
0.0
 10
-0.9538817969808995
 20
-13.43242024936907
 30
0.0
 10
-0.8178323613249329
 20
-13.44486158884976
 30
0.0
 10
-0.5030888283692954
 20
-13.43130780311137
 30
0.0
 10
-0.3279015954271797
 20
-13.40544007746663
 30
0.0
 10
0.0351912067313796
 20
-13.30845371797904
 30
0.0
 10
0.2190512052750356
 20
-13.23839208730362
 30
0.0
 10
0.5673514966309565
 20
-13.05384276657507
 30
0.0
 10
0.7279110365457362
 20
-12.94138770395377
 30
0.0
 10
1.000849452347291
 20
-12.68037221939521
 30
0.0
 10
1.110187255417753
 20
-12.53469640892254
 30
0.0
 10
1.205153538617974
 20
-12.33662677505585
 30
0.0
 10
1.222533784446303
 20
-12.2945803105544
 30
0.0
 10
1.237336346262211
 20
-12.25211515011148
 30
0.0
  0
SPLINE
  5
1B8AA
330
1B826
100
AcDbEntity
  8
0
100
AcDbSpline
210
0.0
220
0.0
230
1.0
 70
     8
 71
     3
 72
     8
 73
     4
 74
     0
 42
0.000000001
 43
0.0000000001
 40
0.5413570538388609
 40
0.5413570538388609
 40
0.5413570538388609
 40
0.5413570538388609
 40
0.5486885212301981
 40
0.5486885212301981
 40
0.5486885212301981
 40
0.5486885212301981
 10
-1.281422537822981
 20
-13.28055054957994
 30
0.0
 10
-1.279795031058432
 20
-13.28701466343558
 30
0.0
 10
-1.277547576188108
 20
-13.29347496723918
 30
0.0
 10
-1.274679665653766
 20
-13.29991417280156
 30
0.0
  0
SPLINE
  5
1B8AB
330
1B826
100
AcDbEntity
  8
0
100
AcDbSpline
210
0.0
220
0.0
230
1.0
 70
     8
 71
     3
 72
     8
 73
     4
 74
     0
 42
0.000000001
 43
0.0000000001
 40
7.958032867806193
 40
7.958032867806193
 40
7.958032867806193
 40
7.958032867806193
 40
8.377580409572781
 40
8.377580409572781
 40
8.377580409572781
 40
8.377580409572781
 10
0.9006795623928152
 20
-15.67146156264036
 30
0.0
 10
0.7379295597835598
 20
-15.79342426389657
 30
0.0
 10
0.5524206736970975
 20
-15.89443149564313
 30
0.0
 10
0.3609728716241889
 20
-15.97153109731092
 30
0.0
  0
SPLINE
  5
1B8AC
330
1B826
100
AcDbEntity
  8
0
100
AcDbSpline
210
0.0
220
0.0
230
1.0
 70
     8
 71
     3
 72
     8
 73
     4
 74
     0
 42
0.000000001
 43
0.0000000001
 40
0.0
 40
0.0
 40
0.0
 40
0.0
 40
0.0388480225948267
 40
0.0388480225948267
 40
0.0388480225948267
 40
0.0388480225948267
 10
0.2212354448563726
 20
-15.41592562219017
 30
0.0
 10
0.3335486265965537
 20
-15.35534821369566
 30
0.0
 10
0.4417184324655093
 20
-15.28323712940134
 30
0.0
 10
0.5397185849684893
 20
-15.20005354517969
 30
0.0
  0
SPLINE
  5
1B8AD
330
1B826
100
AcDbEntity
  8
0
100
AcDbSpline
210
0.0
220
0.0
230
1.0
 70
     8
 71
     3
 72
    10
 73
     6
 74
     0
 42
0.000000001
 43
0.0000000001
 40
-0.1116990019949009
 40
-0.1116990019949009
 40
-0.1116990019949009
 40
-0.1116990019949009
 40
-0.0587539721768653
 40
-0.0587539721768653
 40
-0.014494207322777
 40
-0.014494207322777
 40
-0.014494207322777
 40
-0.014494207322777
 10
1.676446247227354
 20
-13.0695909147662
 30
0.0
 10
1.593386920181306
 20
-12.92407149890636
 30
0.0
 10
1.510911276898901
 20
-12.77576548716226
 30
0.0
 10
1.364910540586047
 20
-12.50318491697072
 30
0.0
 10
1.300552537655012
 20
-12.3791105921422
 30
0.0
 10
1.237336346262255
 20
-12.25211515011148
 30
0.0
  0
LINE
  5
1B8AE
330
1B826
100
AcDbEntity
  8
0
100
AcDbLine
 10
1.011200947979754
 20
-13.72697741522221
 30
0.0
 11
1.110878229196428
 21
-13.73588023089079
 31
0.0
  0
SPLINE
  5
1B8AF
330
1B826
100
AcDbEntity
  8
0
100
AcDbSpline
210
0.0
220
0.0
230
1.0
 70
     8
 71
     3
 72
     8
 73
     4
 74
     0
 42
0.000000001
 43
0.0000000001
 40
1.075574923320971
 40
1.075574923320971
 40
1.075574923320971
 40
1.075574923320971
 40
1.077908432330143
 40
1.077908432330143
 40
1.077908432330143
 40
1.077908432330143
 10
1.05713998384763
 20
-13.58932880347029
 30
0.0
 10
1.058226223208833
 20
-13.58189200674418
 30
0.0
 10
1.059312492361794
 20
-13.57445594731441
 30
0.0
 10
1.060398711379167
 20
-13.56702068496764
 30
0.0
  0
SPLINE
  5
1B8B0
330
1B826
100
AcDbEntity
  8
0
100
AcDbSpline
210
0.0
220
0.0
230
1.0
 70
     8
 71
     3
 72
     8
 73
     4
 74
     0
 42
0.000000001
 43
0.0000000001
 40
1.824967515230908
 40
1.824967515230908
 40
1.824967515230908
 40
1.824967515230908
 40
2.019685653931942
 40
2.019685653931942
 40
2.019685653931942
 40
2.019685653931942
 10
1.05713998384763
 20
-13.58932880347029
 30
0.0
 10
0.8744747165706938
 20
-14.13623340686995
 30
0.0
 10
0.6957069962308329
 20
-14.67575868819327
 30
0.0
 10
0.539718584968443
 20
-15.2000535451797
 30
0.0
  0
SPLINE
  5
1B8B1
330
1B826
100
AcDbEntity
  8
0
100
AcDbSpline
210
0.0
220
0.0
230
1.0
 70
     8
 71
     3
 72
    10
 73
     6
 74
     0
 42
0.000000001
 43
0.0000000001
 40
-0.0900921038043046
 40
-0.0900921038043046
 40
-0.0900921038043046
 40
-0.0900921038043046
 40
-0.042452622727719
 40
-0.042452622727719
 40
-0.0274778096442149
 40
-0.0274778096442149
 40
-0.0274778096442149
 40
-0.0274778096442149
 10
0.9006795623928191
 20
-15.67146156264036
 30
0.0
 10
0.8117101347823664
 20
-15.55484903556308
 30
0.0
 10
0.7184259576906954
 20
-15.43239107194111
 30
0.0
 10
0.603397926654969
 20
-15.28253675402294
 30
0.0
 10
0.5722483186235755
 20
-15.24204931966388
 30
0.0
 10
0.539718584968443
 20
-15.2000535451797
 30
0.0
  0
SPLINE
  5
1B8B2
330
1B826
100
AcDbEntity
  8
0
100
AcDbSpline
210
0.0
220
0.0
230
1.0
 70
     8
 71
     3
 72
     8
 73
     4
 74
     0
 42
0.000000001
 43
0.0000000001
 40
2.118468509545538
 40
2.118468509545538
 40
2.118468509545538
 40
2.118468509545538
 40
2.443592656319528
 40
2.443592656319528
 40
2.443592656319528
 40
2.443592656319528
 10
0.3217667326619157
 20
-15.98554033134194
 30
0.0
 10
0.1060642943723237
 20
-16.83239378656594
 30
0.0
 10
-0.0259899665412357
 20
-17.6264001741966
 30
0.0
 10
-0.000000000000005
 20
-18.3696727879329
 30
0.0
  0
SPLINE
  5
1B8B3
330
1B826
100
AcDbEntity
  8
0
100
AcDbSpline
210
0.0
220
0.0
230
1.0
 70
     8
 71
     3
 72
     8
 73
     4
 74
     0
 42
0.000000001
 43
0.0000000001
 40
1.214619168502709
 40
1.214619168502709
 40
1.214619168502709
 40
1.214619168502709
 40
1.308589060326328
 40
1.308589060326328
 40
1.308589060326328
 40
1.308589060326328
 10
1.237336346262255
 20
-12.25211515011148
 30
0.0
 10
1.272690218657059
 20
-11.92824518516503
 30
0.0
 10
1.299943504493329
 20
-11.58301581475914
 30
0.0
 10
1.299997073612263
 20
-11.26932580004395
 30
0.0
  0
LINE
  5
1B8B4
330
1B826
100
AcDbEntity
  8
0
100
AcDbLine
 10
1.484924240491745
 20
-11.07043492279695
 30
0.0
 11
1.299913187596429
 21
-11.30059180591933
 31
0.0
  0
LINE
  5
1B8B5
330
1B826
100
AcDbEntity
  8
0
100
AcDbLine
 10
1.343794507731717
 20
-11.05782972348993
 30
0.0
 11
1.484924240491745
 21
-11.07043492279695
 31
0.0
  0
LINE
  5
1B8B6
330
1B826
100
AcDbEntity
  8
0
100
AcDbLine
 10
0.2379400083012937
 20
-16.88186134118389
 30
0.0
 11
0.0
 21
-18.3696727879329
 31
0.0
  0
LINE
  5
1B8B7
330
1B826
100
AcDbEntity
  8
0
100
AcDbLine
 10
0.2379400083012937
 20
-16.88186134118389
 30
0.0
 11
0.5266903843366013
 21
-16.5226509831611
 31
0.0
  0
LINE
  5
1B8B8
330
1B826
100
AcDbEntity
  8
0
100
AcDbLine
 10
0.5266903843366013
 20
-16.5226509831611
 30
0.0
 11
0.2986445638781875
 21
-16.50228275201806
 31
0.0
  0
LINE
  5
1B8B9
330
1B826
100
AcDbEntity
  8
0
100
AcDbLine
 10
0.3851017393020816
 20
-15.96167599921628
 30
0.0
 11
0.2986445638781875
 21
-16.50228275201806
 31
0.0
  0
LINE
  5
1B8BA
330
1B826
100
AcDbEntity
  8
0
100
AcDbLine
 10
1.110878229196429
 20
-13.73588023089079
 30
0.0
 11
0.9358291742749441
 21
-13.95364421981875
 31
0.0
  0
LINE
  5
1B8BB
330
1B826
100
AcDbEntity
  8
0
100
AcDbLine
 10
0.7723224648556278
 20
14.53092557772937
 30
0.0
 11
1.329471158934244
 21
14.5057650879901
 31
0.0
  0
LINE
  5
1B8BC
330
1B826
100
AcDbEntity
  8
0
100
AcDbLine
 10
-1.329471158934243
 20
14.5057650879901
 30
0.0
 11
-0.7723224648556273
 21
14.53092557772937
 31
0.0
  0
SPLINE
  5
1B8BD
330
1B826
100
AcDbEntity
  8
0
100
AcDbSpline
210
0.0
220
0.0
230
1.0
 70
    12
 71
     2
 72
     6
 73
     3
 74
     0
 42
0.000000001
 43
0.0000000001
 40
0.0
 40
0.0
 40
0.0
 40
0.3870045666688413
 40
0.3870045666688413
 40
0.3870045666688413
 10
-2.223470511960305
 20
16.40385050223109
 30
0.0
 41
1.0
 10
-1.172503088998471
 20
15.02439814151114
 30
0.0
 41
1.126874713456363
 10
-0.7723224648556264
 20
14.53092557772937
 30
0.0
 41
1.0
  0
ELLIPSE
  5
1B8BE
330
1B826
100
AcDbEntity
  8
0
100
AcDbEllipse
 10
0.0
 20
12.74350144384565
 30
0.0
 11
-0.6695712605189075
 21
-5.216518751334076
 31
0.0
210
0.0
220
0.0
230
0.9999999999999998
 40
0.6585534664607949
 41
4.022452796694627
 42
4.119483442387068
  0
LINE
  5
1B8BF
330
1B826
100
AcDbEntity
  8
0
100
AcDbLine
 10
-2.474873734152915
 20
16.02403895399514
 30
0.0
 11
-1.329471158934243
 21
14.5057650879901
 31
0.0
  0
SPLINE
  5
1B8C0
330
1B826
100
AcDbEntity
  8
0
100
AcDbSpline
210
0.0
220
0.0
230
1.0
 70
    12
 71
     2
 72
     6
 73
     3
 74
     0
 42
0.000000001
 43
0.0000000001
 40
0.0
 40
0.0
 40
0.0
 40
0.3870045666688413
 40
0.3870045666688413
 40
0.3870045666688413
 10
0.7723224648556277
 20
14.53092557772937
 30
0.0
 41
1.0
 10
1.172503088998486
 20
15.02439814151116
 30
0.0
 41
1.126874713456468
 10
2.223470511960307
 20
16.40385050223109
 30
0.0
 41
1.0
  0
LINE
  5
1B8C1
330
1B826
100
AcDbEntity
  8
0
100
AcDbLine
 10
2.474873734152918
 20
16.02403895399514
 30
0.0
 11
1.329471158934244
 21
14.5057650879901
 31
0.0
  0
ELLIPSE
  5
1B8C2
330
1B826
100
AcDbEntity
  8
0
100
AcDbEllipse
 10
0.0
 20
12.74350144384565
 30
0.0
 11
0.6695712605189002
 21
-5.216518751334073
 31
0.0
210
0.0
220
0.0
230
1.0
 40
0.6585534664607954
 41
2.163701864792519
 42
2.260732510484959
  0
ELLIPSE
  5
1B8C3
330
1B826
100
AcDbEntity
  8
0
100
AcDbEllipse
 10
0.0
 20
12.74350144384565
 30
0.0
 11
3.356761417399818
 21
7.661756525410454
 31
0.0
210
0.0
220
0.0
230
1.0
 40
0.1293484353559204
 41
5.210706864938639
 42
5.30773751063108
  0
ELLIPSE
  5
1B8C4
330
1B826
100
AcDbEntity
  8
0
100
AcDbEllipse
 10
0.0
 20
12.74350144384565
 30
0.0
 11
3.356761417399816
 21
-7.661756525410456
 31
0.0
210
0.0
220
0.0
230
1.0
 40
0.1293484353559201
 41
4.117040450138292
 42
4.214071095830732
  0
SPLINE
  5
1B8C5
330
1B826
100
AcDbEntity
  8
0
100
AcDbSpline
210
0.0
220
0.0
230
1.0
 70
     8
 71
     3
 72
     8
 73
     4
 74
     0
 42
0.000000001
 43
0.0000000001
 40
0.0
 40
0.0
 40
0.0
 40
0.0
 40
0.049973439029569
 40
0.049973439029569
 40
0.049973439029569
 40
0.049973439029569
 10
1.484924240491745
 20
-11.07043492279695
 30
0.0
 10
1.46018865015983
 20
-11.04965980130059
 30
0.0
 10
1.434805318102892
 20
-11.02929077914525
 30
0.0
 10
1.408815518140178
 20
-11.00933322054101
 30
0.0
  0
SPLINE
  5
1B8C6
330
1B826
100
AcDbEntity
  8
0
100
AcDbSpline
210
0.0
220
0.0
230
1.0
 70
     8
 71
     3
 72
    20
 73
    16
 74
     0
 42
0.000000001
 43
0.0000000001
 40
1.452927608033279
 40
1.452927608033279
 40
1.452927608033279
 40
1.452927608033279
 40
2.254113738725071
 40
2.254113738725071
 40
2.254113738725071
 40
3.378538357417297
 40
3.378538357417297
 40
3.378538357417297
 40
4.501313958143737
 40
4.501313958143737
 40
4.501313958143737
 40
5.622518429801346
 40
5.622518429801346
 40
5.622518429801346
 40
6.333158746209325
 40
6.333158746209325
 40
6.333158746209325
 40
6.333158746209325
 10
-1.295611114752516
 20
-10.41133586363668
 30
0.0
 10
-1.731562016809056
 20
-10.50967566193476
 30
0.0
 10
-2.031917393513022
 20
-10.70744598075428
 30
0.0
 10
-2.089067994199186
 20
-10.92544220210628
 30
0.0
 10
-2.169276000707094
 20
-11.23138898360936
 30
0.0
 10
-1.766526859149923
 20
-11.554442111399
 30
0.0
 10
-1.09487130355035
 20
-11.64524908485819
 30
0.0
 10
-0.4242007602491488
 20
-11.73592288591244
 30
0.0
 10
0.4810135649479154
 20
-11.58325807612109
 30
0.0
 10
1.140859967982127
 20
-11.19083894277865
 30
0.0
 10
1.799783030801162
 20
-10.79896893172491
 30
0.0
 10
2.181326231475775
 20
-10.18029871042353
 30
0.0
 10
2.083685379826946
 20
-9.584989696477297
 30
0.0
 10
2.021798786021728
 20
-9.207671734655558
 30
0.0
 10
1.7693907855084
 20
-8.848678283909574
 30
0.0
 10
1.40342809202746
 20
-8.562447790474658
 30
0.0
  0
SPLINE
  5
1B8C7
330
1B826
100
AcDbEntity
  8
0
100
AcDbSpline
210
0.0
220
0.0
230
1.0
 70
     8
 71
     3
 72
    23
 73
    19
 74
     0
 42
0.000000001
 43
0.0000000001
 40
7.736112915212865
 40
7.736112915212865
 40
7.736112915212865
 40
7.736112915212865
 40
7.860520111508397
 40
7.860520111508397
 40
7.860520111508397
 40
8.977467857561258
 40
8.977467857561258
 40
8.977467857561258
 40
10.09314566685298
 40
10.09314566685298
 40
10.09314566685298
 40
11.20762654771187
 40
11.20762654771187
 40
11.20762654771187
 40
12.34779594318285
 40
12.34779594318285
 40
12.34779594318285
 40
12.61634405338872
 40
12.61634405338872
 40
12.61634405338872
 40
12.61634405338872
 10
-1.299588688627117
 20
-7.960370745642402
 30
0.0
 10
-1.36821097986079
 20
-7.974908949906001
 30
0.0
 10
-1.433427095747226
 20
-7.992030226821329
 30
0.0
 10
-1.494601573701364
 20
-8.011647592049779
 30
0.0
 10
-2.043835840700834
 20
-8.187775440983497
 30
0.0
 10
-2.240451735731801
 20
-8.549342042724155
 30
0.0
 10
-1.981120153449895
 20
-8.83005031710657
 30
0.0
 10
-1.722083423555513
 20
-9.110439434430798
 30
0.0
 10
-1.020835746678012
 20
-9.289435402753918
 30
0.0
 10
-0.2452033419712276
 20
-9.197101838410857
 30
0.0
 10
0.5295969439366589
 20
-9.10486733193875
 30
0.0
 10
1.341008547670849
 20
-8.739375005658903
 30
0.0
 10
1.764190489614837
 20
-8.216161800865249
 30
0.0
 10
2.197126672915417
 20
-7.680888658312756
 30
0.0
 10
2.200136608401872
 20
-6.999859674478812
 30
0.0
 10
1.771582827437597
 20
-6.462964463006692
 30
0.0
 10
1.670644047238192
 20
-6.336507644403996
 30
0.0
 10
1.547029044641799
 20
-6.219176851870025
 30
0.0
 10
1.406685931491006
 20
-6.112572693084521
 30
0.0
  0
SPLINE
  5
1B8C8
330
1B826
100
AcDbEntity
  8
0
100
AcDbSpline
210
0.0
220
0.0
230
1.0
 70
     8
 71
     3
 72
    20
 73
    16
 74
     0
 42
0.000000001
 43
0.0000000001
 40
14.01929822239245
 40
14.01929822239245
 40
14.01929822239245
 40
14.01929822239245
 40
14.61491067966716
 40
14.61491067966716
 40
14.61491067966716
 40
15.74254395427244
 40
15.74254395427244
 40
15.74254395427244
 40
16.86666666943809
 40
16.86666666943809
 40
16.86666666943809
 40
17.98759496261884
 40
17.98759496261884
 40
17.98759496261884
 40
18.899529360568
 40
18.899529360568
 40
18.899529360568
 40
18.899529360568
 10
-1.29443711835021
 20
-5.514045271651113
 30
0.0
 10
-1.621190576384323
 20
-5.585819902184252
 30
0.0
 10
-1.875141588634574
 20
-5.710990131926161
 30
0.0
 10
-2.001397623623329
 20
-5.863002155879737
 30
0.0
 10
-2.240429739950249
 20
-6.150796365447601
 30
0.0
 10
-2.009810675889541
 20
-6.512621751179872
 30
0.0
 10
-1.432697009254073
 20
-6.677000463302182
 30
0.0
 10
-0.8573800187860925
 20
-6.84086742993728
 30
0.0
 10
0.0331687998003241
 20
-6.793008132218445
 30
0.0
 10
0.7658595314176731
 20
-6.481244834978845
 30
0.0
 10
1.496468174176186
 20
-6.170367476184708
 30
0.0
 10
2.033831743374646
 20
-5.605412693285236
 30
0.0
 10
2.093848051295885
 20
-5.008057998213244
 30
0.0
 10
2.142674489136955
 20
-4.522078388699775
 30
0.0
 10
1.873717961759932
 20
-4.02942039931069
 30
0.0
 10
1.406323467910763
 20
-3.661645575947725
 30
0.0
  0
SPLINE
  5
1B8C9
330
1B826
100
AcDbEntity
  8
0
100
AcDbSpline
210
0.0
220
0.0
230
1.0
 70
     8
 71
     3
 72
    20
 73
    16
 74
     0
 42
0.000000001
 43
0.0000000001
 40
20.30248352957205
 40
20.30248352957205
 40
20.30248352957205
 40
20.30248352957205
 40
21.36041692750016
 40
21.36041692750016
 40
21.36041692750016
 40
22.49115620308348
 40
22.49115620308348
 40
22.49115620308348
 40
23.61465675023791
 40
23.61465675023791
 40
23.61465675023791
 40
24.73218281049327
 40
24.73218281049327
 40
24.73218281049327
 40
25.25060994747996
 40
25.25060994747996
 40
25.25060994747996
 40
25.25060994747996
 10
-1.299448648642957
 20
-3.060854527398149
 30
0.0
 10
-1.876610360283783
 20
-3.189468915476996
 30
0.0
 10
-2.189014909832821
 20
-3.502231362928256
 30
0.0
 10
-2.074932214241743
 20
-3.7872083887639
 30
0.0
 10
-1.952998466028594
 20
-4.091797237534868
 30
0.0
 10
-1.350719661904149
 20
-4.341293337835501
 30
0.0
 10
-0.5912176446396748
 20
-4.323009760795231
 30
0.0
 10
0.1634222183131113
 20
-4.304843230939714
 30
0.0
 10
1.035066336100815
 20
-4.016116307516699
 30
0.0
 10
1.561098617075217
 20
-3.53258073130314
 30
0.0
 10
2.084333593696599
 20
-3.051616472898577
 30
0.0
 10
2.240074868884738
 20
-2.394624160988483
 30
0.0
 10
1.946403072467309
 20
-1.830793247604458
 30
0.0
 10
1.810166939776461
 20
-1.569228657241807
 30
0.0
 10
1.580139855035522
 20
-1.332299923796165
 30
0.0
 10
1.294821276593638
 20
-1.135780186898742
 30
0.0
  0
SPLINE
  5
1B8CA
330
1B826
100
AcDbEntity
  8
0
100
AcDbSpline
210
0.0
220
0.0
230
1.0
 70
     8
 71
     3
 72
    14
 73
    10
 74
     0
 42
0.000000001
 43
0.0000000001
 40
26.58566883675163
 40
26.58566883675163
 40
26.58566883675163
 40
26.58566883675163
 40
26.99203255855903
 40
26.99203255855903
 40
26.99203255855903
 40
28.1262217907614
 40
28.1262217907614
 40
28.1262217907614
 40
29.02893576608254
 40
29.02893576608254
 40
29.02893576608254
 40
29.02893576608254
 10
-1.296249093888401
 20
-0.6147663286855787
 30
0.0
 10
-1.520560760110166
 20
-0.6625325610396171
 30
0.0
 10
-1.71043133811612
 20
-0.735419167664122
 30
0.0
 10
-1.846032416226859
 20
-0.8269808940634204
 30
0.0
 10
-2.2245043969051
 20
-1.082536000464284
 30
0.0
 10
-2.160201297029721
 20
-1.463196199164087
 30
0.0
 10
-1.687798449823548
 20
-1.684212815108234
 30
0.0
 10
-1.311807706791681
 20
-1.860122427301917
 30
0.0
 10
-0.6962621211645298
 20
-1.928806465673034
 30
0.0
 10
-0.0646619650592756
 20
-1.822732819976229
 30
0.0
  0
SPLINE
  5
1B8CB
330
1B826
100
AcDbEntity
  8
0
100
AcDbSpline
210
0.0
220
0.0
230
1.0
 70
     8
 71
     3
 72
    17
 73
    13
 74
     0
 42
0.000000001
 43
0.0000000001
 40
2.356194490192344
 40
2.356194490192344
 40
2.356194490192344
 40
2.356194490192344
 40
2.540981518021434
 40
2.540981518021434
 40
2.540981518021434
 40
3.80814899449357
 40
3.80814899449357
 40
3.80814899449357
 40
5.073252104463276
 40
5.073252104463276
 40
5.073252104463276
 40
5.497787143782137
 40
5.497787143782137
 40
5.497787143782137
 40
5.497787143782137
 10
-1.298022797405067
 20
-10.63250280339399
 30
0.0
 10
-1.299108622767444
 20
-10.65446920545488
 30
0.0
 10
-1.29258066642166
 20
-10.67650914238132
 30
0.0
 10
-1.277868024980199
 20
-10.69794006724811
 30
0.0
 10
-1.176976848003973
 20
-10.84490152499191
 30
0.0
 10
-0.6993638149381276
 20
-10.93837367818231
 30
0.0
 10
-0.1541309622142799
 20
-10.81129331763366
 30
0.0
 10
0.3902136413569606
 20
-10.68441998610389
 30
0.0
 10
0.9587927654331242
 20
-10.33479806316251
 30
0.0
 10
1.184599451646821
 20
-9.881985099341425
 30
0.0
 10
1.260374184674305
 20
-9.730033082241039
 30
0.0
 10
1.295553054451259
 20
-9.569026526059438
 30
0.0
 10
1.293409891316011
 20
-9.407963998087641
 30
0.0
  0
SPLINE
  5
1B8CC
330
1B826
100
AcDbEntity
  8
0
100
AcDbSpline
210
0.0
220
0.0
230
1.0
 70
     8
 71
     3
 72
    17
 73
    13
 74
     0
 42
0.000000001
 43
0.0000000001
 40
8.63937979737193
 40
8.63937979737193
 40
8.63937979737193
 40
8.63937979737193
 40
8.857276931822699
 40
8.857276931822699
 40
8.857276931822699
 40
10.15442361348757
 40
10.15442361348757
 40
10.15442361348757
 40
11.44487896728774
 40
11.44487896728774
 40
11.44487896728774
 40
11.78097245096172
 40
11.78097245096172
 40
11.78097245096172
 40
11.78097245096172
 10
-1.297433965811144
 20
-8.183090008014328
 30
0.0
 10
-1.29877607980837
 20
-8.209000356216078
 30
0.0
 10
-1.289672339272863
 20
-8.234980283349266
 30
0.0
 10
-1.269260458464553
 20
-8.259890245028422
 30
0.0
 10
-1.147748059856021
 20
-8.408179823108273
 30
0.0
 10
-0.6336642486718482
 20
-8.491815779819527
 30
0.0
 10
-0.0724407218408371
 20
-8.341336071777512
 30
0.0
 10
0.4858877348516227
 20
-8.191632612927456
 30
0.0
 10
1.042841103581041
 20
-7.808882540134294
 30
0.0
 10
1.227265313775512
 20
-7.336399363603467
 30
0.0
 10
1.27529779711215
 20
-7.213343175483544
 30
0.0
 10
1.297021394697537
 20
-7.085957292956819
 30
0.0
 10
1.294813834393175
 20
-6.958586116016691
 30
0.0
  0
SPLINE
  5
1B8CD
330
1B826
100
AcDbEntity
  8
0
100
AcDbSpline
210
0.0
220
0.0
230
1.0
 70
     8
 71
     3
 72
    17
 73
    13
 74
     0
 42
0.000000001
 43
0.0000000001
 40
14.92256510455151
 40
14.92256510455151
 40
14.92256510455151
 40
14.92256510455151
 40
15.28140687981719
 40
15.28140687981719
 40
15.28140687981719
 40
16.55029276230431
 40
16.55029276230431
 40
16.55029276230431
 40
17.81498018856625
 40
17.81498018856625
 40
17.81498018856625
 40
18.06415775814131
 40
18.06415775814131
 40
18.06415775814131
 40
18.06415775814131
 10
-1.294465337371775
 20
-5.733815606288859
 30
0.0
 10
-1.296682459206387
 20
-5.776591452666584
 30
0.0
 10
-1.271804852658728
 20
-5.81936106687098
 30
0.0
 10
-1.217195471142912
 20
-5.856788232011007
 30
0.0
 10
-1.024093446704783
 20
-5.989132916329151
 30
0.0
 10
-0.4749889519891916
 20
-6.030821385989275
 30
0.0
 10
0.0739707564180067
 20
-5.847866890295532
 30
0.0
 10
0.6211140813844645
 20
-5.665517749623836
 30
0.0
 10
1.124701895009226
 20
-5.261562804163708
 30
0.0
 10
1.259850236513509
 20
-4.79058339526027
 30
0.0
 10
1.286478108799449
 20
-4.697787735247009
 30
0.0
 10
1.298397866312184
 20
-4.603327569535773
 30
0.0
 10
1.296808005123931
 20
-4.508928860666769
 30
0.0
  0
SPLINE
  5
1B8CE
330
1B826
100
AcDbEntity
  8
0
100
AcDbSpline
210
0.0
220
0.0
230
1.0
 70
     8
 71
     3
 72
    17
 73
    13
 74
     0
 42
0.000000001
 43
0.0000000001
 40
21.2057504117311
 40
21.2057504117311
 40
21.2057504117311
 40
21.2057504117311
 40
21.65473289702302
 40
21.65473289702302
 40
21.65473289702302
 40
22.92724121795464
 40
22.92724121795464
 40
22.92724121795464
 40
24.19107521083291
 40
24.19107521083291
 40
24.19107521083291
 40
24.3473430653209
 40
24.3473430653209
 40
24.3473430653209
 40
24.3473430653209
 10
-1.292700179846393
 20
-3.284257971256225
 30
0.0
 10
-1.294918695558109
 20
-3.337913026042418
 30
0.0
 10
-1.255604176450512
 20
-3.391496885519953
 30
0.0
 10
-1.171155985963709
 20
-3.434347597786722
 30
0.0
 10
-0.9318125180059183
 20
-3.555795292749386
 30
0.0
 10
-0.3500088475036552
 20
-3.567689645118203
 30
0.0
 10
0.1951622108208863
 20
-3.35453374630426
 30
0.0
 10
0.7366169927743354
 20
-3.142830870753421
 30
0.0
 10
1.198925523399854
 20
-2.713165843977001
 30
0.0
 10
1.284159506802901
 20
-2.236591638863107
 30
0.0
 10
1.294698336895233
 20
-2.177665206311742
 30
0.0
 10
1.299343753037649
 20
-2.118408319819646
 30
0.0
 10
1.298468961892309
 20
-2.059224790596045
 30
0.0
  0
SPLINE
  5
1B8CF
330
1B826
100
AcDbEntity
  8
0
100
AcDbSpline
210
0.0
220
0.0
230
1.0
 70
     8
 71
     3
 72
    11
 73
     7
 74
     0
 42
0.000000001
 43
0.0000000001
 40
27.48893571891069
 40
27.48893571891069
 40
27.48893571891069
 40
27.48893571891069
 40
28.04151139278067
 40
28.04151139278067
 40
28.04151139278067
 40
29.02893576608254
 40
29.02893576608254
 40
29.02893576608254
 40
29.02893576608254
 10
-1.291342696000269
 20
-0.8344789104744254
 30
0.0
 10
-1.29275324303283
 20
-0.9006723653146586
 30
0.0
 10
-1.232210598432602
 20
-0.9667819683145939
 30
0.0
 10
-1.106528051001329
 20
-1.012646829990739
 30
0.0
 10
-0.881939788251444
 20
-1.094604984210538
 30
0.0
 10
-0.4677098417843921
 20
-1.10465659169052
 30
0.0
 10
-0.0400288355128856
 20
-0.9839479967828834
 30
0.0
  0
LINE
  5
1B8D0
330
1B826
100
AcDbEntity
  8
0
100
AcDbLine
 10
-0.0400288355128853
 20
-0.983947996782879
 30
0.0
 11
-0.0646619650592755
 21
-1.822732819976229
 31
0.0
  0
SPLINE
  5
1B8D1
330
1B826
100
AcDbEntity
  8
0
100
AcDbSpline
210
0.0
220
0.0
230
1.0
 70
     8
 71
     3
 72
    11
 73
     7
 74
     0
 42
0.000000001
 43
0.0000000001
 40
0.0
 40
0.0
 40
0.0
 40
0.0
 40
1.112617358101977
 40
1.112617358101977
 40
1.112617358101977
 40
1.988472573165063
 40
1.988472573165063
 40
1.988472573165063
 40
1.988472573165063
 10
-0.0646619650592753
 20
-1.822732819976229
 30
0.0
 10
0.7165790751988977
 20
-1.639927099731131
 30
0.0
 10
1.37592485157226
 20
-1.188072536058073
 30
0.0
 10
1.614952220904216
 20
-0.6732208467034795
 30
0.0
 10
1.803115174185244
 20
-0.2679282869374533
 30
0.0
 10
1.731319844092386
 20
0.1617248543226379
 30
0.0
 10
1.493006132790295
 20
0.5146688297950775
 30
0.0
  0
SPLINE
  5
1B8D2
330
1B826
100
AcDbEntity
  8
0
100
AcDbSpline
210
0.0
220
0.0
230
1.0
 70
     8
 71
     3
 72
    14
 73
    10
 74
     0
 42
0.000000001
 43
0.0000000001
 40
0.0
 40
0.0
 40
0.0
 40
0.0
 40
0.054208008631754
 40
0.054208008631754
 40
0.1084160172635078
 40
0.1084160172635078
 40
0.1626240258952618
 40
0.1626240258952618
 40
0.2067748987353109
 40
0.2067748987353109
 40
0.2067748987353109
 40
0.2067748987353109
 10
-0.0400288355128853
 20
-0.983947996782879
 30
0.0
 10
0.1347998300569223
 20
-0.9500347597417801
 30
0.0
 10
0.3089306339758167
 20
-0.8960903647740291
 30
0.0
 10
0.6348909658695204
 20
-0.7487279556871607
 30
0.0
 10
0.7833927670939414
 20
-0.6568021885364273
 30
0.0
 10
1.033611018434789
 20
-0.4416101402102935
 30
0.0
 10
1.132772992171882
 20
-0.3205285783162504
 30
0.0
 10
1.254818506556629
 20
-0.0842070666967465
 30
0.0
 10
1.287529599885108
 20
0.026192936248679
 30
0.0
 10
1.297066204500172
 20
0.1380691929312316
 30
0.0
  0
SPLINE
  5
1B8D3
330
1B826
100
AcDbEntity
  8
0
100
AcDbSpline
210
0.0
220
0.0
230
1.0
 70
     8
 71
     3
 72
    10
 73
     6
 74
     0
 42
0.000000001
 43
0.0000000001
 40
0.0751363029400639
 40
0.0751363029400639
 40
0.0751363029400639
 40
0.0751363029400639
 40
0.1086233849536644
 40
0.1086233849536644
 40
0.1322543528253901
 40
0.1322543528253901
 40
0.1322543528253901
 40
0.1322543528253901
 10
-0.387771078598048
 20
-16.13404015292042
 30
0.0
 10
-0.4510546148971438
 20
-16.14764004876558
 30
0.0
 10
-0.498362301315834
 20
-16.15440046576081
 30
0.0
 10
-0.5457055427871007
 20
-16.16259084184769
 30
0.0
 10
-0.5551380986109825
 20
-16.16494733016313
 30
0.0
 10
-0.5542775676950403
 20
-16.16837115678519
 30
0.0
  0
LINE
  5
1B8D4
330
1B826
100
AcDbEntity
  8
0
100
AcDbLine
 10
0.3609728716241889
 20
-15.97153109731092
 30
0.0
 11
0.2212354448563728
 21
-15.41592562219018
 31
0.0
  0
SPLINE
  5
1B8D5
330
1B826
100
AcDbEntity
  8
0
100
AcDbSpline
210
0.0
220
0.0
230
1.0
 70
     8
 71
     3
 72
    16
 73
    12
 74
     0
 42
0.000000001
 43
0.0000000001
 40
0.1939672098625429
 40
0.1939672098625429
 40
0.1939672098625429
 40
0.1939672098625429
 40
0.1966992853871787
 40
0.1966992853871787
 40
0.2380794626733607
 40
0.2380794626733607
 40
0.2804511526679097
 40
0.2804511526679097
 40
0.3129490350336384
 40
0.3129490350336384
 40
0.3464489876903639
 40
0.3464489876903639
 40
0.3464489876903639
 40
0.3464489876903639
 10
-0.6729896316058161
 20
-15.69455417558117
 30
0.0
 10
-0.6727229760420635
 20
-15.69439785777618
 30
0.0
 10
-0.672335795508484
 20
-15.69424887930923
 30
0.0
 10
-0.6641289262039598
 20
-15.69192291190762
 30
0.0
 10
-0.6289249922151967
 20
-15.69089780117413
 30
0.0
 10
-0.5080171148097521
 20
-15.675973936412
 30
0.0
 10
-0.423010727448009
 20
-15.66196840442233
 30
0.0
 10
-0.2430678151550532
 20
-15.61531829275197
 30
0.0
 10
-0.1565508574451076
 20
-15.58817247764429
 30
0.0
 10
0.0282391986990498
 20
-15.51571725901281
 30
0.0
 10
0.1252914692650972
 20
-15.47045764843236
 30
0.0
 10
0.221235444856371
 20
-15.41592562219018
 30
0.0
  0
SPLINE
  5
1B8D6
330
1B826
100
AcDbEntity
  8
0
100
AcDbSpline
210
0.0
220
0.0
230
1.0
 70
     8
 71
     3
 72
    11
 73
     7
 74
     0
 42
0.000000001
 43
0.0000000001
 40
0.0
 40
0.0
 40
0.0
 40
0.0
 40
1.265274109621229
 40
1.265274109621229
 40
1.265274109621229
 40
2.193730441253834
 40
2.193730441253834
 40
2.193730441253834
 40
2.193730441253834
 10
0.360972871624189
 20
-15.97153109731092
 30
0.0
 10
-0.2241412027164855
 20
-16.18736128489975
 30
0.0
 10
-0.7942351289623771
 20
-16.16079281710706
 30
0.0
 10
-1.010662888529374
 20
-16.05881588067287
 30
0.0
 10
-1.16947726889411
 20
-15.98398535059812
 30
0.0
 10
-1.13735598252222
 20
-15.88338788246828
 30
0.0
 10
-0.9821048631001449
 20
-15.83570563001875
 30
0.0
  0
SPLINE
  5
1B8D7
330
1B826
100
AcDbEntity
  8
0
100
AcDbSpline
210
0.0
220
0.0
230
1.0
 70
     8
 71
     3
 72
    11
 73
     7
 74
     0
 42
0.000000001
 43
0.0000000001
 40
3.836731305045889
 40
3.836731305045889
 40
3.836731305045889
 40
3.836731305045889
 40
3.875894810845957
 40
3.875894810845957
 40
3.875894810845957
 40
4.18879020478639
 40
4.18879020478639
 40
4.18879020478639
 40
4.18879020478639
 10
0.3356438320721753
 20
-16.27063048454924
 30
0.0
 10
0.3443018871441347
 20
-16.27927564794291
 30
0.0
 10
0.3527859502952472
 20
-16.28802495294369
 30
0.0
 10
0.3610867627804468
 20
-16.29687690883404
 30
0.0
 10
0.4274057998411618
 20
-16.36759928592647
 30
0.0
 10
0.4831988168155465
 20
-16.44366909888497
 30
0.0
 10
0.5266903843366013
 20
-16.5226509831611
 30
0.0
  0
SPLINE
  5
1B8D8
330
1B826
100
AcDbEntity
  8
0
100
AcDbSpline
210
0.0
220
0.0
230
1.0
 70
     8
 71
     3
 72
     8
 73
     4
 74
     0
 42
0.000000001
 43
0.0000000001
 40
0.0014773591046769
 40
0.0014773591046769
 40
0.0014773591046769
 40
0.0014773591046769
 40
0.0229697846696359
 40
0.0229697846696359
 40
0.0229697846696359
 40
0.0229697846696359
 10
-0.5537158195158256
 20
-16.17061131185625
 30
0.0
 10
-0.5867091981051841
 20
-16.15527332774796
 30
0.0
 10
-0.6150764463867358
 20
-16.14416873445606
 30
0.0
 10
-0.6375169529018363
 20
-16.13629327785033
 30
0.0
  0
SPLINE
  5
1B8D9
330
1B826
100
AcDbEntity
  8
0
100
AcDbSpline
210
0.0
220
0.0
230
1.0
 70
     8
 71
     3
 72
    10
 73
     6
 74
     0
 42
0.000000001
 43
0.0000000001
 40
0.0
 40
0.0
 40
0.0
 40
0.0
 40
0.0513145812676881
 40
0.0513145812676881
 40
0.0794204684782568
 40
0.0794204684782568
 40
0.0794204684782568
 40
0.0794204684782568
 10
-0.9863516863940702
 20
-15.83387661262164
 30
0.0
 10
-0.9532617924436571
 20
-15.8244180709068
 30
0.0
 10
-0.8938703263485068
 20
-15.80503984484037
 30
0.0
 10
-0.7736767087817622
 20
-15.74989676209617
 30
0.0
 10
-0.7252394433761462
 20
-15.725289283476
 30
0.0
 10
-0.6729896798558775
 20
-15.69455504841817
 30
0.0
  0
ENDBLK
  5
1B828
330
1B826
100
AcDbEntity
  8
0
100
AcDbBlockEnd
  0
ENDSEC
  0
SECTION
  2
ENTITIES
  0
INSERT
  5
1B8DA
330
1F
100
AcDbEntity
  8
0
100
AcDbBlockReference
  2
TTFA442X45T-20-Front
 10
0.0
 20
0.0
 30
0.0
  0
INSERT
  5
1B8DB
330
1F
100
AcDbEntity
  8
0
100
AcDbBlockReference
  2
TTFA442X45T-20-Top
 10
0.0
 20
-57.57630720839113
 30
0.0
  0
INSERT
  5
1B8DC
330
1F
100
AcDbEntity
  8
0
100
AcDbBlockReference
  2
TTFA442X45T-20-ISO
 10
16.07630720839114
 20
-74.46970650436961
 30
0.0
  0
MTEXT
  5
1B8DD
330
1F
100
AcDbEntity
  8
0
100
AcDbMText
 10
0.0
 20
-70.15261441678227
 30
0.0
 40
1.143300655308285
 41
0.0
 71
     5
 72
     5
  1
TTFA44.2X45T-20
 73
     1
 44
1.0
1001
ACAD
1000
MTEXTBEGIN
1070
    73
1070
     1
1070
    44
1040
1.0
1070
    74
1070
     0
1000
MTEXTEND
  0
ENDSEC
  0
SECTION
  2
OBJECTS
  0
DICTIONARY
  5
C
330
0
100
AcDbDictionary
281
     1
  3
ACAD_CIP_PREVIOUS_PRODUCT_INFO
350
216
  3
ACAD_COLOR
350
6B
  3
ACAD_DETAILVIEWSTYLE
350
21B
  3
ACAD_GROUP
350
D
  3
ACAD_LAYOUT
350
1A
  3
ACAD_MATERIAL
350
6A
  3
ACAD_MLEADERSTYLE
350
12D
  3
ACAD_MLINESTYLE
350
17
  3
ACAD_PLOTSETTINGS
350
19
  3
ACAD_PLOTSTYLENAME
350
E
  3
ACAD_SCALELIST
350
10C
  3
ACAD_SECTIONVIEWSTYLE
350
219
  3
ACAD_TABLESTYLE
350
7E
  3
ACAD_VISUALSTYLE
350
EF
  3
ACDB_RECOMPOSE_DATA
350
1B9DE
  3
AcDbVariableDictionary
350
5E
  3
DWGPROPS
350
1B9DF
  0
DICTIONARY
  5
1B92E
330
8
100
AcDbDictionary
280
     1
281
     1
  0
DICTIONARY
  5
1FF
330
2
100
AcDbDictionary
280
     1
281
     1
  3
ACAD_LAYERSTATES
360
200
  0
DICTIONARY
  5
13C
330
10
100
AcDbDictionary
280
     1
281
     1
  0
DICTIONARY
  5
1CE
330
1F
100
AcDbDictionary
280
     1
281
     1
  3
ACAD_LAYOUTSELFREF
360
1B936
  0
DICTIONARY
  5
1B8E1
330
D2
100
AcDbDictionary
280
     1
281
     1
  3
ACAD_LAYOUTSELFREF
360
1B93F
  0
DICTIONARY
  5
1B8E3
330
D6
100
AcDbDictionary
280
     1
281
     1
  3
ACAD_LAYOUTSELFREF
360
1B942
  0
XRECORD
  5
216
102
{ACAD_REACTORS
330
C
102
}
330
C
100
AcDbXrecord
280
     1
300
ACD
300
2021
300
87393ACD_2021_0F
  0
DICTIONARY
  5
6B
102
{ACAD_REACTORS
330
C
102
}
330
C
100
AcDbDictionary
281
     1
  0
DICTIONARY
  5
21B
102
{ACAD_REACTORS
330
C
102
}
330
C
100
AcDbDictionary
281
     1
  3
Metric50
350
21C
  0
DICTIONARY
  5
D
102
{ACAD_REACTORS
330
C
102
}
330
C
100
AcDbDictionary
281
     1
  0
DICTIONARY
  5
1A
102
{ACAD_REACTORS
330
C
102
}
330
C
100
AcDbDictionary
281
     1
  3
Layout1
350
D3
  3
Layout2
350
D7
  3
Model
350
22
  0
DICTIONARY
  5
6A
102
{ACAD_REACTORS
330
C
102
}
330
C
100
AcDbDictionary
281
     1
  3
ByBlock
350
ED
  3
ByLayer
350
EC
  3
Global
350
EE
  0
DICTIONARY
  5
12D
102
{ACAD_REACTORS
330
C
102
}
330
C
100
AcDbDictionary
281
     1
  3
Standard
350
12E
  0
DICTIONARY
  5
17
102
{ACAD_REACTORS
330
C
102
}
330
C
100
AcDbDictionary
281
     1
  3
Standard
350
18
  0
DICTIONARY
  5
19
102
{ACAD_REACTORS
330
C
102
}
330
C
100
AcDbDictionary
281
     1
  0
ACDBDICTIONARYWDFLT
  5
E
102
{ACAD_REACTORS
330
C
102
}
330
C
100
AcDbDictionary
281
     1
  3
Normal
350
F
100
AcDbDictionaryWithDefault
340
F
  0
DICTIONARY
  5
10C
102
{ACAD_REACTORS
330
C
102
}
330
C
100
AcDbDictionary
281
     1
  3
A0
350
10D
  3
A1
350
1BE
  3
A2
350
1BF
  3
A3
350
1C0
  3
A4
350
1C1
  3
A5
350
1C2
  3
A6
350
1C3
  3
A7
350
1C4
  3
A8
350
1C5
  3
A9
350
1C6
  3
B0
350
1C7
  3
B1
350
1C8
  3
B2
350
1C9
  3
B3
350
1CA
  3
B4
350
1CB
  3
B5
350
1CC
  3
B6
350
1CD
  0
DICTIONARY
  5
219
102
{ACAD_REACTORS
330
C
102
}
330
C
100
AcDbDictionary
281
     1
  3
Metric50
350
21A
  0
DICTIONARY
  5
7E
102
{ACAD_REACTORS
330
C
102
}
330
C
100
AcDbDictionary
281
     1
  3
Standard
350
7F
  0
DICTIONARY
  5
EF
102
{ACAD_REACTORS
330
C
102
}
330
C
100
AcDbDictionary
281
     1
  3
2dWireframe
350
F5
  3
Basic
350
F4
  3
Brighten
350
FB
  3
ColorChange
350
FF
  3
Conceptual
350
F8
  3
Dim
350
FA
  3
EdgeColorOff
350
1E6
  3
Facepattern
350
FE
  3
Flat
350
F0
  3
FlatWithEdges
350
F1
  3
Gouraud
350
F2
  3
GouraudWithEdges
350
F3
  3
Hidden
350
F7
  3
JitterOff
350
1E4
  3
Linepattern
350
FD
  3
OverhangOff
350
1E5
  3
Realistic
350
F9
  3
Shaded
350
1F3
  3
Shaded with edges
350
1F2
  3
Shades of Gray
350
1EF
  3
Sketchy
350
1F0
  3
Thicken
350
FC
  3
Wireframe
350
F6
  3
X-Ray
350
1F1
  0
XRECORD
  5
1B9DE
102
{ACAD_REACTORS
330
C
102
}
330
C
100
AcDbXrecord
280
     1
 90
        1
330
7F
  0
DICTIONARY
  5
5E
102
{ACAD_REACTORS
330
C
102
}
330
C
100
AcDbDictionary
281
     1
  3
CANNOSCALE
350
146
  3
CENTEREXE
350
259
  3
CENTERLTYPEFILE
350
25A
  3
CMLEADERSTYLE
350
145
  3
CTABLESTYLE
350
84
  3
CVIEWDETAILSTYLE
350
227
  3
CVIEWSECTIONSTYLE
350
228
  3
DIMASSOC
350
5F
  3
HIDETEXT
350
63
  3
INDEXCTL
350
1B98B
  3
LAYEREVAL
350
1AE
  3
LAYERNOTIFY
350
1AF
  3
LIGHTINGUNITS
350
1B989
  3
MSLTSCALE
350
1B988
  3
PSOLHEIGHT
350
1B9DB
  3
PSOLWIDTH
350
1B9DA
  3
SORTENTS
350
1B98A
  3
XCLIPFRAME
350
1B9DC
  0
XRECORD
  5
1B9DF
102
{ACAD_REACTORS
330
C
102
}
330
C
100
AcDbXrecord
280
     1
  1
DWGPROPS COOKIE
  2

  3

  4

  6

  7

  8
KhuNguyen
  9

300
=
301
=
302
=
303
=
304
=
305
=
306
=
307
=
308
=
309
=
 40
0.0066550925925926
 41
2460476.646099537
 42
2460476.696354167
  1

 90
        0
  0
DICTIONARY
  5
200
102
{ACAD_REACTORS
330
1FF
102
}
330
1FF
100
AcDbDictionary
281
     1
  0
XRECORD
  5
1B936
102
{ACAD_REACTORS
330
1CE
102
}
330
1CE
100
AcDbXrecord
280
     1
340
1F
  0
XRECORD
  5
1B93F
102
{ACAD_REACTORS
330
1B8E1
102
}
330
1B8E1
100
AcDbXrecord
280
     1
340
D2
  0
XRECORD
  5
1B942
102
{ACAD_REACTORS
330
1B8E3
102
}
330
1B8E3
100
AcDbXrecord
280
     1
340
D6
  0
ACDBDETAILVIEWSTYLE
  5
21C
102
{ACAD_XDICTIONARY
360
1BA1E
102
}
102
{ACAD_REACTORS
330
21B
102
}
330
21B
100
AcDbModelDocViewStyle
 70
     0
  3
Metric50
290
     0
100
AcDbDetailViewStyle
 70
     0
 71
     0
 90
        3
 71
     1
340
11
 40
5.0
340
0
 40
5.0
300

 40
0.0
280
     1
 71
     2
340
16
 90
       25
 71
     3
340
11
 40
5.0
 90
        0
 40
15.0
 90
        1
300
%<\AcVar ViewDetailId>% (%<\AcVar ViewScale \f "%sn">%)
 71
     4
340
16
 90
       25
340
16
 90
       25
280
     0
  0
LAYOUT
  5
D3
102
{ACAD_XDICTIONARY
360
1B9E3
102
}
102
{ACAD_REACTORS
330
1A
102
}
330
1A
100
AcDbPlotSettings
  1

  2
C:\Documents and Settings\basas\Application Data\Autodesk\AutoCAD 2005\R16.1\enu\plotters\Default Windows System Printer.pc3
  4

  6

 40
0.0
 41
0.0
 42
0.0
 43
0.0
 44
0.0
 45
0.0
 46
0.0
 47
0.0
 48
0.0
 49
0.0
140
0.0
141
0.0
142
1.0
143
1.0
 70
   688
 72
     0
 73
     0
 74
     5
  7

 75
    16
147
1.0
148
0.0
149
0.0
100
AcDbLayout
  1
Layout1
 70
     1
 71
     1
 10
0.0
 20
0.0
 11
12.0
 21
9.0
 12
0.0
 22
0.0
 32
0.0
 14
0.0
 24
0.0
 34
0.0
 15
0.0
 25
0.0
 35
0.0
146
0.0
 13
0.0
 23
0.0
 33
0.0
 16
1.0
 26
0.0
 36
0.0
 17
0.0
 27
1.0
 37
0.0
 76
     0
330
D2
  0
LAYOUT
  5
D7
102
{ACAD_XDICTIONARY
360
1B9E5
102
}
102
{ACAD_REACTORS
330
1A
102
}
330
1A
100
AcDbPlotSettings
  1

  2
C:\Documents and Settings\basas\Application Data\Autodesk\AutoCAD 2005\R16.1\enu\plotters\Default Windows System Printer.pc3
  4

  6

 40
0.0
 41
0.0
 42
0.0
 43
0.0
 44
0.0
 45
0.0
 46
0.0
 47
0.0
 48
0.0
 49
0.0
140
0.0
141
0.0
142
1.0
143
1.0
 70
   688
 72
     0
 73
     0
 74
     5
  7

 75
    16
147
1.0
148
0.0
149
0.0
100
AcDbLayout
  1
Layout2
 70
     1
 71
     2
 10
0.0
 20
0.0
 11
12.0
 21
9.0
 12
0.0
 22
0.0
 32
0.0
 14
0.0
 24
0.0
 34
0.0
 15
0.0
 25
0.0
 35
0.0
146
0.0
 13
0.0
 23
0.0
 33
0.0
 16
1.0
 26
0.0
 36
0.0
 17
0.0
 27
1.0
 37
0.0
 76
     0
330
D6
  0
LAYOUT
  5
22
102
{ACAD_XDICTIONARY
360
1B9E0
102
}
102
{ACAD_REACTORS
330
1A
102
}
330
1A
100
AcDbPlotSettings
  1

  2
none_device
  4
ISO_A4_(210.00_x_297.00_MM)
  6

 40
7.5
 41
20.0
 42
7.5
 43
20.0
 44
210.0
 45
297.0
 46
11.54999923706054
 47
-13.65000009536743
 48
0.0
 49
0.0
140
0.0
141
0.0
142
1.0
143
8.704084754739808
 70
 11952
 72
     1
 73
     0
 74
     0
  7

 75
     0
147
0.1148885871608098
148
0.0
149
0.0
100
AcDbLayout
  1
Model
 70
     1
 71
     0
 10
0.0
 20
0.0
 11
12.0
 21
9.0
 12
0.0
 22
0.0
 32
0.0
 14
0.0
 24
0.0
 34
0.0
 15
0.0
 25
0.0
 35
0.0
146
0.0
 13
0.0
 23
0.0
 33
0.0
 16
1.0
 26
0.0
 36
0.0
 17
0.0
 27
1.0
 37
0.0
 76
     0
330
1F
331
EA
1001
ACAD_PSEXT
1000
None
1000
None
1000
Not applicable
1000
The layout will not be plotted unless a new plotter configuration name is selected.
1070
     0
  0
MATERIAL
  5
ED
102
{ACAD_XDICTIONARY
360
1F9
102
}
102
{ACAD_REACTORS
330
6A
102
}
330
6A
100
AcDbMaterial
  1
ByBlock
  0
MATERIAL
  5
EC
102
{ACAD_XDICTIONARY
360
1F7
102
}
102
{ACAD_REACTORS
330
6A
102
}
330
6A
100
AcDbMaterial
  1
ByLayer
  0
MATERIAL
  5
EE
102
{ACAD_XDICTIONARY
360
173
102
}
102
{ACAD_REACTORS
330
6A
102
}
330
6A
100
AcDbMaterial
  1
Global
 43
0.0007999999797903
 43
0.0
 43
0.0
 43
0.0
 43
0.0
 43
0.0007999999797903
 43
0.0
 43
0.0
 43
0.0
 43
0.0
 43
1.0
 43
0.0
 43
0.0
 43
0.0
 43
0.0
 43
1.0
 49
0.0007999999797903
 49
0.0
 49
0.0
 49
0.0
 49
0.0
 49
0.0007999999797903
 49
0.0
 49
0.0
 49
0.0
 49
0.0
 49
1.0
 49
0.0
 49
0.0
 49
0.0
 49
0.0
 49
1.0
142
0.0007999999797903
142
0.0
142
0.0
142
0.0
142
0.0
142
0.0007999999797903
142
0.0
142
0.0
142
0.0
142
0.0
142
1.0
142
0.0
142
0.0
142
0.0
142
0.0
142
1.0
144
0.0007999999797903
144
0.0
144
0.0
144
0.0
144
0.0
144
0.0007999999797903
144
0.0
144
0.0
144
0.0
144
0.0
144
1.0
144
0.0
144
0.0
144
0.0
144
0.0
144
1.0
1001
ACAD
1070
    -1
1070
     3
1070
     0
1000

1071
        0
1070
     0
  0
MLEADERSTYLE
  5
12E
102
{ACAD_XDICTIONARY
360
1BA0A
102
}
102
{ACAD_REACTORS
330
12D
102
}
330
12D
100
AcDbMLeaderStyle
170
     2
171
     1
172
     0
 90
        2
 40
0.0
 41
0.0
173
     1
 91
-1056964608
340
14
 92
       -2
290
     1
 42
2.0
291
     1
 43
8.0
  3
Standard
 44
4.0
300

342
11
174
     1
178
     1
175
     1
176
     0
 93
-1056964608
 45
4.0
292
     0
297
     0
 46
4.0
 94
-1056964608
 47
1.0
 49
1.0
140
1.0
293
     1
141
0.0
294
     1
177
     0
142
1.0
295
     0
296
     0
143
3.75
1001
ACAD_MLEADERVER
1070
     2
  0
MLINESTYLE
  5
18
102
{ACAD_REACTORS
330
17
102
}
330
17
100
AcDbMlineStyle
  2
STANDARD
 70
     0
  3

 62
   256
 51
90.0
 52
90.0
 71
     2
 49
0.5
 62
   256
  6
BYLAYER
 49
-0.5
 62
   256
  6
BYLAYER
  0
ACDBPLACEHOLDER
  5
F
102
{ACAD_REACTORS
330
E
102
}
330
E
  0
SCALE
  5
10D
102
{ACAD_REACTORS
330
10C
102
}
330
10C
100
AcDbScale
 70
     0
300
1:1
140
1.0
141
1.0
290
     1
  0
SCALE
  5
1BE
102
{ACAD_REACTORS
330
10C
102
}
330
10C
100
AcDbScale
 70
     0
300
1:2
140
1.0
141
2.0
290
     0
  0
SCALE
  5
1BF
102
{ACAD_REACTORS
330
10C
102
}
330
10C
100
AcDbScale
 70
     0
300
1:4
140
1.0
141
4.0
290
     0
  0
SCALE
  5
1C0
102
{ACAD_REACTORS
330
10C
102
}
330
10C
100
AcDbScale
 70
     0
300
1:5
140
1.0
141
5.0
290
     0
  0
SCALE
  5
1C1
102
{ACAD_REACTORS
330
10C
102
}
330
10C
100
AcDbScale
 70
     0
300
1:8
140
1.0
141
8.0
290
     0
  0
SCALE
  5
1C2
102
{ACAD_REACTORS
330
10C
102
}
330
10C
100
AcDbScale
 70
     0
300
1:10
140
1.0
141
10.0
290
     0
  0
SCALE
  5
1C3
102
{ACAD_REACTORS
330
10C
102
}
330
10C
100
AcDbScale
 70
     0
300
1:16
140
1.0
141
16.0
290
     0
  0
SCALE
  5
1C4
102
{ACAD_REACTORS
330
10C
102
}
330
10C
100
AcDbScale
 70
     0
300
1:20
140
1.0
141
20.0
290
     0
  0
SCALE
  5
1C5
102
{ACAD_REACTORS
330
10C
102
}
330
10C
100
AcDbScale
 70
     0
300
1:30
140
1.0
141
30.0
290
     0
  0
SCALE
  5
1C6
102
{ACAD_REACTORS
330
10C
102
}
330
10C
100
AcDbScale
 70
     0
300
1:40
140
1.0
141
40.0
290
     0
  0
SCALE
  5
1C7
102
{ACAD_REACTORS
330
10C
102
}
330
10C
100
AcDbScale
 70
     0
300
1:50
140
1.0
141
50.0
290
     0
  0
SCALE
  5
1C8
102
{ACAD_REACTORS
330
10C
102
}
330
10C
100
AcDbScale
 70
     0
300
1:100
140
1.0
141
100.0
290
     0
  0
SCALE
  5
1C9
102
{ACAD_REACTORS
330
10C
102
}
330
10C
100
AcDbScale
 70
     0
300
2:1
140
2.0
141
1.0
290
     0
  0
SCALE
  5
1CA
102
{ACAD_REACTORS
330
10C
102
}
330
10C
100
AcDbScale
 70
     0
300
4:1
140
4.0
141
1.0
290
     0
  0
SCALE
  5
1CB
102
{ACAD_REACTORS
330
10C
102
}
330
10C
100
AcDbScale
 70
     0
300
8:1
140
8.0
141
1.0
290
     0
  0
SCALE
  5
1CC
102
{ACAD_REACTORS
330
10C
102
}
330
10C
100
AcDbScale
 70
     0
300
10:1
140
10.0
141
1.0
290
     0
  0
SCALE
  5
1CD
102
{ACAD_REACTORS
330
10C
102
}
330
10C
100
AcDbScale
 70
     0
300
100:1
140
100.0
141
1.0
290
     0
  0
ACDBSECTIONVIEWSTYLE
  5
21A
102
{ACAD_XDICTIONARY
360
1BA1C
102
}
102
{ACAD_REACTORS
330
219
102
}
330
219
100
AcDbModelDocViewStyle
 70
     0
  3
Metric50
290
     0
100
AcDbSectionViewStyle
 70
     0
 71
     0
 90
      102
 71
     1
340
11
 40
5.0
340
0
340
0
 40
5.0
300
I, O, Q, S, X, Z
 40
10.0
 90
        0
 40
2.5
 90
        0
 71
     2
340
16
 90
       25
340
16
 90
       50
 40
5.0
 40
2.5
 40
5.0
 71
     3
340
11
 40
5.0
 90
        0
 40
15.0
 90
        1
300
%<\AcVar ViewSectionStartId>%-%<\AcVar ViewSectionEndId>% (%<\AcVar ViewScale \f "%sn">%)
 71
     4
300
ANSI31
 40
1.0
 90
        0
290
     0
290
     0
 90
        6
 40
0.0
 40
1.570796326794896
 40
0.2617993877991494
 40
1.308996938995747
 40
-0.2617993877991494
 40
1.832595714594046
  0
TABLESTYLE
  5
7F
102
{ACAD_XDICTIONARY
360
162
102
}
102
{ACAD_REACTORS
330
7E
102
}
330
7E
100
AcDbTableStyle
  3
Standard
 70
     0
 71
     0
 40
1.5
 41
1.5
280
     0
281
     0
  7
Standard
140
4.5
170
     2
 62
     0
 63
     7
283
     0
274
    -2
284
     1
 64
     0
275
    -2
285
     1
 65
     0
276
    -2
286
     1
 66
     0
277
    -2
287
     1
 67
     0
278
    -2
288
     1
 68
     0
279
    -2
289
     1
 69
     0
  7
Standard
140
6.0
170
     5
 62
     0
 63
     7
283
     0
274
    -2
284
     1
 64
     0
275
    -2
285
     1
 65
     0
276
    -2
286
     1
 66
     0
277
    -2
287
     1
 67
     0
278
    -2
288
     1
 68
     0
279
    -2
289
     1
 69
     0
  7
Standard
140
4.5
170
     5
 62
     0
 63
     7
283
     0
274
    -2
284
     1
 64
     0
275
    -2
285
     1
 65
     0
276
    -2
286
     1
 66
     0
277
    -2
287
     1
 67
     0
278
    -2
288
     1
 68
     0
279
    -2
289
     1
 69
     0
  0
VISUALSTYLE
  5
F5
102
{ACAD_XDICTIONARY
360
1B9F4
102
}
102
{ACAD_REACTORS
330
EF
102
}
330
EF
100
AcDbVisualStyle
  2
2dWireframe
 70
     4
 71
     0
 72
     2
 73
     1
 90
        0
 40
-0.6
 41
-30.0
 62
     5
 63
     7
 74
     1
 91
        4
 64
     7
 65
   257
 75
     1
175
     1
 42
1.0
 92
        0
 66
   257
 43
1.0
 76
     1
 77
     6
 78
     2
 67
     7
 79
     5
170
     0
171
     0
290
     0
174
     0
 93
        1
 44
0.0
173
     0
291
     0
 45
0.0
1001
ACAD
1000
AcDbSavedByObjectVersion
1070
     0
  0
VISUALSTYLE
  5
F4
102
{ACAD_XDICTIONARY
360
1B9F2
102
}
102
{ACAD_REACTORS
330
EF
102
}
330
EF
100
AcDbVisualStyle
  2
Basic
 70
     7
 71
     1
 72
     0
 73
     1
 90
        0
 40
-0.6
 41
-30.0
 62
     5
 63
     7
 74
     0
 91
        4
 64
     7
 65
   257
 75
     1
175
     1
 42
1.0
 92
        8
 66
     7
 43
1.0
 76
     1
 77
     6
 78
     2
 67
     7
 79
     5
170
     0
171
     0
290
     0
174
     0
 93
        1
 44
0.0
173
     0
291
     1
 45
0.0
1001
ACAD
1000
AcDbSavedByObjectVersion
1070
     0
  0
VISUALSTYLE
  5
FB
102
{ACAD_XDICTIONARY
360
1BA00
102
}
102
{ACAD_REACTORS
330
EF
102
}
330
EF
100
AcDbVisualStyle
  2
Brighten
 70
    12
 71
     2
 72
     2
 73
     1
 90
        0
 40
-0.6
 41
-30.0
 62
     5
 63
     7
 74
     1
 91
        4
 64
     7
 65
   257
 75
     1
175
     1
 42
1.0
 92
        8
 66
     7
 43
1.0
 76
     1
 77
     6
 78
     2
 67
     7
 79
     5
170
     0
171
     0
290
     0
174
     0
 93
        1
 44
50.0
173
     0
291
     1
 45
0.0
1001
ACAD
1000
AcDbSavedByObjectVersion
1070
     0
  0
VISUALSTYLE
  5
FF
102
{ACAD_XDICTIONARY
360
1BA08
102
}
102
{ACAD_REACTORS
330
EF
102
}
330
EF
100
AcDbVisualStyle
  2
ColorChange
 70
    16
 71
     2
 72
     2
 73
     3
 90
        0
 40
-0.6
 41
-30.0
 62
     5
 63
     8
 74
     1
 91
        4
 64
     7
 65
   257
 75
     1
175
     1
 42
1.0
 92
        8
 66
     8
 43
1.0
 76
     1
 77
     6
 78
     2
 67
     7
 79
     5
170
     0
171
     0
290
     0
174
     0
 93
        1
 44
0.0
173
     0
291
     1
 45
0.0
1001
ACAD
1000
AcDbSavedByObjectVersion
1070
     0
  0
VISUALSTYLE
  5
F8
102
{ACAD_XDICTIONARY
360
1B9FA
102
}
102
{ACAD_REACTORS
330
EF
102
}
330
EF
100
AcDbVisualStyle
  2
Conceptual
 70
     9
 71
     3
 72
     2
 73
     1
 90
        0
 40
-0.6
 41
-30.0
 62
     5
 63
     7
 74
     2
 91
        2
 64
     7
 65
   257
 75
     1
175
     1
 42
40.0
 92
        8
 66
     7
 43
1.0
 76
     1
 77
     6
 78
     2
 67
     7
 79
     3
170
     0
171
     0
290
     0
174
     0
 93
        1
 44
0.0
173
     0
291
     0
 45
0.0
1001
ACAD
1000
AcDbSavedByObjectVersion
1070
     0
  0
VISUALSTYLE
  5
FA
102
{ACAD_XDICTIONARY
360
1B9FE
102
}
102
{ACAD_REACTORS
330
EF
102
}
330
EF
100
AcDbVisualStyle
  2
Dim
 70
    11
 71
     2
 72
     2
 73
     1
 90
        0
 40
-0.6
 41
-30.0
 62
     5
 63
     7
 74
     1
 91
        4
 64
     7
 65
   257
 75
     1
175
     1
 42
1.0
 92
        8
 66
     7
 43
1.0
 76
     1
 77
     6
 78
     2
 67
     7
 79
     5
170
     0
171
     0
290
     0
174
     0
 93
        1
 44
-50.0
173
     0
291
     1
 45
0.0
1001
ACAD
1000
AcDbSavedByObjectVersion
1070
     0
  0
VISUALSTYLE
  5
1E6
102
{ACAD_XDICTIONARY
360
1BA10
102
}
102
{ACAD_REACTORS
330
EF
102
}
330
EF
100
AcDbVisualStyle
  2
EdgeColorOff
 70
    22
 71
     2
 72
     2
 73
     0
 90
        0
 40
-0.6
 41
-30.0
 62
     5
 63
     7
 74
     1
 91
        4
 64
     7
 65
   257
 75
     1
175
     1
 42
1.0
 92
        8
 66
     7
 43
1.0
 76
     1
 77
     6
 78
     2
 67
     7
 79
     5
170
     0
171
     0
290
     0
174
     0
 93
        1
 44
0.0
173
     0
291
     1
 45
0.0
1001
ACAD
1000
AcDbSavedByObjectVersion
1070
     0
  0
VISUALSTYLE
  5
FE
102
{ACAD_XDICTIONARY
360
1BA06
102
}
102
{ACAD_REACTORS
330
EF
102
}
330
EF
100
AcDbVisualStyle
  2
Facepattern
 70
    15
 71
     2
 72
     2
 73
     1
 90
        0
 40
-0.6
 41
-30.0
 62
     5
 63
     7
 74
     1
 91
        4
 64
     7
 65
   257
 75
     1
175
     1
 42
1.0
 92
        8
 66
     7
 43
1.0
 76
     1
 77
     6
 78
     2
 67
     7
 79
     5
170
     0
171
     0
290
     0
174
     0
 93
        1
 44
0.0
173
     0
291
     1
 45
0.0
1001
ACAD
1000
AcDbSavedByObjectVersion
1070
     0
  0
VISUALSTYLE
  5
F0
102
{ACAD_XDICTIONARY
360
1B9EA
102
}
102
{ACAD_REACTORS
330
EF
102
}
330
EF
100
AcDbVisualStyle
  2
Flat
 70
     0
 71
     2
 72
     1
 73
     1
 90
        2
 40
-0.6
 41
30.0
 62
     5
 63
     7
 74
     0
 91
        0
 64
     7
 65
   257
 75
     1
175
     1
 42
1.0
 92
        8
 66
     7
 43
1.0
 76
     1
 77
     6
 78
     2
 67
     7
 79
     5
170
     0
171
     0
290
     0
174
     0
 93
       13
 44
0.0
173
     0
291
     1
 45
0.0
1001
ACAD
1000
AcDbSavedByObjectVersion
1070
     0
  0
VISUALSTYLE
  5
F1
102
{ACAD_XDICTIONARY
360
1B9EC
102
}
102
{ACAD_REACTORS
330
EF
102
}
330
EF
100
AcDbVisualStyle
  2
FlatWithEdges
 70
     1
 71
     2
 72
     1
 73
     1
 90
        2
 40
-0.6
 41
30.0
 62
     5
 63
     7
 74
     1
 91
        0
 64
     7
 65
   257
 75
     1
175
     1
 42
1.0
 92
        0
 66
   257
 43
1.0
 76
     1
 77
     6
 78
     2
 67
     7
 79
     5
170
     0
171
     0
290
     0
174
     0
 93
       13
 44
0.0
173
     0
291
     1
 45
0.0
1001
ACAD
1000
AcDbSavedByObjectVersion
1070
     0
  0
VISUALSTYLE
  5
F2
102
{ACAD_XDICTIONARY
360
1B9EE
102
}
102
{ACAD_REACTORS
330
EF
102
}
330
EF
100
AcDbVisualStyle
  2
Gouraud
 70
     2
 71
     2
 72
     2
 73
     1
 90
        2
 40
-0.6
 41
30.0
 62
     5
 63
     7
 74
     0
 91
        0
 64
     7
 65
   257
 75
     1
175
     1
 42
1.0
 92
        0
 66
     7
 43
1.0
 76
     1
 77
     6
 78
     2
 67
     7
 79
     5
170
     0
171
     0
290
     0
174
     0
 93
       13
 44
0.0
173
     0
291
     1
 45
0.0
1001
ACAD
1000
AcDbSavedByObjectVersion
1070
     0
  0
VISUALSTYLE
  5
F3
102
{ACAD_XDICTIONARY
360
1B9F0
102
}
102
{ACAD_REACTORS
330
EF
102
}
330
EF
100
AcDbVisualStyle
  2
GouraudWithEdges
 70
     3
 71
     2
 72
     2
 73
     1
 90
        2
 40
-0.6
 41
30.0
 62
     5
 63
     7
 74
     1
 91
        0
 64
     7
 65
   257
 75
     1
175
     1
 42
1.0
 92
        0
 66
   257
 43
1.0
 76
     1
 77
     6
 78
     2
 67
     7
 79
     5
170
     0
171
     0
290
     0
174
     0
 93
       13
 44
0.0
173
     0
291
     1
 45
0.0
1001
ACAD
1000
AcDbSavedByObjectVersion
1070
     0
  0
VISUALSTYLE
  5
F7
102
{ACAD_XDICTIONARY
360
1B9F8
102
}
102
{ACAD_REACTORS
330
EF
102
}
330
EF
100
AcDbVisualStyle
  2
Hidden
 70
     6
 71
     1
 72
     2
 73
     2
 90
        0
 40
-0.6
 41
-30.0
 62
     5
 63
     7
 74
     2
 91
        2
 64
     7
 65
   257
 75
     2
175
     1
 42
40.0
 92
        0
 66
   257
 43
1.0
 76
     1
 77
     6
 78
     2
 67
     7
 79
     3
170
     0
171
     0
290
     0
174
     0
 93
        1
 44
0.0
173
     0
291
     0
 45
0.0
1001
ACAD
1000
AcDbSavedByObjectVersion
1070
     0
  0
VISUALSTYLE
  5
1E4
102
{ACAD_XDICTIONARY
360
1BA0C
102
}
102
{ACAD_REACTORS
330
EF
102
}
330
EF
100
AcDbVisualStyle
  2
JitterOff
 70
    20
 71
     2
 72
     2
 73
     0
 90
        0
 40
-0.6
 41
-30.0
 62
     5
 63
     7
 74
     1
 91
        4
 64
     7
 65
   257
 75
     1
175
     1
 42
1.0
 92
       10
 66
     7
 43
1.0
 76
     1
 77
     6
 78
     2
 67
     7
 79
     5
170
     0
171
     0
290
     0
174
     0
 93
        1
 44
0.0
173
     0
291
     1
 45
0.0
1001
ACAD
1000
AcDbSavedByObjectVersion
1070
     0
  0
VISUALSTYLE
  5
FD
102
{ACAD_XDICTIONARY
360
1BA04
102
}
102
{ACAD_REACTORS
330
EF
102
}
330
EF
100
AcDbVisualStyle
  2
Linepattern
 70
    14
 71
     2
 72
     2
 73
     1
 90
        0
 40
-0.6
 41
-30.0
 62
     5
 63
     7
 74
     1
 91
        4
 64
     7
 65
   257
 75
     7
175
     7
 42
1.0
 92
        8
 66
     7
 43
1.0
 76
     1
 77
     6
 78
     2
 67
     7
 79
     5
170
     0
171
     0
290
     0
174
     0
 93
        1
 44
0.0
173
     0
291
     1
 45
0.0
1001
ACAD
1000
AcDbSavedByObjectVersion
1070
     0
  0
VISUALSTYLE
  5
1E5
102
{ACAD_XDICTIONARY
360
1BA0E
102
}
102
{ACAD_REACTORS
330
EF
102
}
330
EF
100
AcDbVisualStyle
  2
OverhangOff
 70
    21
 71
     2
 72
     2
 73
     0
 90
        0
 40
-0.6
 41
-30.0
 62
     5
 63
     7
 74
     1
 91
        4
 64
     7
 65
   257
 75
     1
175
     1
 42
1.0
 92
        9
 66
     7
 43
1.0
 76
     1
 77
     6
 78
     2
 67
     7
 79
     5
170
     0
171
     0
290
     0
174
     0
 93
        1
 44
0.0
173
     0
291
     1
 45
0.0
1001
ACAD
1000
AcDbSavedByObjectVersion
1070
     0
  0
VISUALSTYLE
  5
F9
102
{ACAD_XDICTIONARY
360
1B9FC
102
}
102
{ACAD_REACTORS
330
EF
102
}
330
EF
100
AcDbVisualStyle
  2
Realistic
 70
     8
 71
     2
 72
     2
 73
     0
 90
        2
 40
-0.6
 41
30.0
 62
     5
 63
     7
 74
     0
 91
        0
 64
     7
 65
   257
 75
     1
175
     1
 42
1.0
 92
        8
 66
   257
 43
1.0
 76
     1
 77
     6
 78
     2
 67
     7
 79
     3
170
     0
171
     0
290
     0
174
     0
 93
       13
 44
0.0
173
     0
291
     0
 45
0.0
1001
ACAD
1000
AcDbSavedByObjectVersion
1070
     0
  0
VISUALSTYLE
  5
1F3
102
{ACAD_XDICTIONARY
360
1BA1A
102
}
102
{ACAD_REACTORS
330
EF
102
}
330
EF
100
AcDbVisualStyle
  2
Shaded
 70
    27
 71
     2
 72
     2
 73
     1
 90
        2
 40
-0.6
 41
30.0
 62
     5
 63
     7
 74
     0
 91
        4
 64
     7
 65
   257
 75
     1
175
     1
 42
1.0
 92
        8
 66
   257
 43
1.0
 76
     1
 77
     6
 78
     2
 67
     8
 79
     3
170
     0
171
     0
290
     0
174
     0
 93
        5
 44
0.0
173
     0
291
     0
 45
0.0
1001
ACAD
1000
AcDbSavedByObjectVersion
1070
     0
  0
VISUALSTYLE
  5
1F2
102
{ACAD_XDICTIONARY
360
1BA18
102
}
102
{ACAD_REACTORS
330
EF
102
}
330
EF
100
AcDbVisualStyle
  2
Shaded with edges
 70
    26
 71
     2
 72
     2
 73
     1
 90
        2
 40
-0.6
 41
30.0
 62
     5
 63
     7
 74
     1
 91
        2
 64
     7
 65
   257
 75
     2
175
     1
 42
1.0
 92
        8
 66
   257
 43
1.0
 76
     1
 77
     6
 78
     2
 67
     7
 79
     3
170
     0
171
     0
290
     0
174
     0
 93
        5
 44
0.0
173
     0
291
     0
 45
0.0
1001
ACAD
1000
AcDbSavedByObjectVersion
1070
     0
  0
VISUALSTYLE
  5
1EF
102
{ACAD_XDICTIONARY
360
1BA12
102
}
102
{ACAD_REACTORS
330
EF
102
}
330
EF
100
AcDbVisualStyle
  2
Shades of Gray
 70
    23
 71
     2
 72
     2
 73
     3
 90
        0
 40
-0.6
 41
-30.0
 62
     5
 63
     7
 74
     2
 91
        2
 64
     7
 65
     7
 75
     1
175
     1
 42
40.0
 92
        8
 66
     7
 43
1.0
 76
     1
 77
     6
 78
     2
 67
     7
 79
     3
170
     0
171
     0
290
     0
174
     0
 93
        1
 44
0.0
173
     0
291
     0
 45
0.0
1001
ACAD
1000
AcDbSavedByObjectVersion
1070
     0
  0
VISUALSTYLE
  5
1F0
102
{ACAD_XDICTIONARY
360
1BA14
102
}
102
{ACAD_REACTORS
330
EF
102
}
330
EF
100
AcDbVisualStyle
  2
Sketchy
 70
    24
 71
     1
 72
     2
 73
     2
 90
        0
 40
-0.6
 41
-30.0
 62
     5
 63
     7
 74
     2
 91
        2
 64
     7
 65
     7
 75
     1
175
     1
 42
40.0
 92
       11
 66
     7
 43
1.0
 76
     1
 77
     6
 78
     2
 67
     7
 79
     6
170
     0
171
     0
290
     0
174
     0
 93
        1
 44
0.0
173
     0
291
     0
 45
0.0
1001
ACAD
1000
AcDbSavedByObjectVersion
1070
     0
  0
VISUALSTYLE
  5
FC
102
{ACAD_XDICTIONARY
360
1BA02
102
}
102
{ACAD_REACTORS
330
EF
102
}
330
EF
100
AcDbVisualStyle
  2
Thicken
 70
    13
 71
     2
 72
     2
 73
     1
 90
        0
 40
-0.6
 41
-30.0
 62
     5
 63
     7
 74
     1
 91
        4
 64
     7
 65
   257
 75
     1
175
     1
 42
1.0
 92
       12
 66
     7
 43
1.0
 76
     1
 77
     6
 78
     2
 67
     7
 79
     5
170
     0
171
     0
290
     0
174
     0
 93
        1
 44
0.0
173
     0
291
     1
 45
0.0
1001
ACAD
1000
AcDbSavedByObjectVersion
1070
     0
  0
VISUALSTYLE
  5
F6
102
{ACAD_XDICTIONARY
360
1B9F6
102
}
102
{ACAD_REACTORS
330
EF
102
}
330
EF
100
AcDbVisualStyle
  2
Wireframe
 70
     5
 71
     0
 72
     2
 73
     0
 90
        0
 40
-0.6
 41
-30.0
 62
     5
 63
     7
 74
     1
 91
        4
 64
     7
 65
   257
 75
     1
175
     1
 42
1.0
 92
        0
 66
   257
 43
1.0
 76
     1
 77
     6
 78
     2
 67
     7
 79
     3
170
     0
171
     0
290
     0
174
     0
 93
        1
 44
0.0
173
     0
291
     0
 45
0.0
1001
ACAD
1000
AcDbSavedByObjectVersion
1070
     0
  0
VISUALSTYLE
  5
1F1
102
{ACAD_XDICTIONARY
360
1BA16
102
}
102
{ACAD_REACTORS
330
EF
102
}
330
EF
100
AcDbVisualStyle
  2
X-Ray
 70
    25
 71
     2
 72
     2
 73
     1
 90
        1
 40
0.5
 41
-30.0
 62
     5
 63
     7
 74
     1
 91
        0
 64
     7
 65
   257
 75
     1
175
     1
 42
1.0
 92
        8
 66
     7
 43
1.0
 76
     1
 77
     6
 78
     2
 67
     7
 79
     3
170
     0
171
     0
290
     0
174
     0
 93
       13
 44
0.0
173
     0
291
     0
 45
0.0
1001
ACAD
1000
AcDbSavedByObjectVersion
1070
     0
  0
DICTIONARYVAR
  5
146
102
{ACAD_REACTORS
330
5E
102
}
330
5E
100
DictionaryVariables
280
     0
  1
1:1
  0
DICTIONARYVAR
  5
259
102
{ACAD_REACTORS
330
5E
102
}
330
5E
100
DictionaryVariables
280
     0
  1
3.500000
  0
DICTIONARYVAR
  5
25A
102
{ACAD_REACTORS
330
5E
102
}
330
5E
100
DictionaryVariables
280
     0
  1
acadiso.lin
  0
DICTIONARYVAR
  5
145
102
{ACAD_REACTORS
330
5E
102
}
330
5E
100
DictionaryVariables
280
     0
  1
STANDARD
  0
DICTIONARYVAR
  5
84
102
{ACAD_REACTORS
330
5E
102
}
330
5E
100
DictionaryVariables
280
     0
  1
STANDARD
  0
DICTIONARYVAR
  5
227
102
{ACAD_REACTORS
330
5E
102
}
330
5E
100
DictionaryVariables
280
     0
  1
Metric50
  0
DICTIONARYVAR
  5
228
102
{ACAD_REACTORS
330
5E
102
}
330
5E
100
DictionaryVariables
280
     0
  1
Metric50
  0
DICTIONARYVAR
  5
5F
102
{ACAD_REACTORS
330
5E
102
}
330
5E
100
DictionaryVariables
280
     0
  1
2
  0
DICTIONARYVAR
  5
63
102
{ACAD_REACTORS
330
5E
102
}
330
5E
100
DictionaryVariables
280
     0
  1
1
  0
DICTIONARYVAR
  5
1B98B
102
{ACAD_REACTORS
330
5E
102
}
330
5E
100
DictionaryVariables
280
     0
  1
0
  0
DICTIONARYVAR
  5
1AE
102
{ACAD_REACTORS
330
5E
102
}
330
5E
100
DictionaryVariables
280
     0
  1
0
  0
DICTIONARYVAR
  5
1AF
102
{ACAD_REACTORS
330
5E
102
}
330
5E
100
DictionaryVariables
280
     0
  1
0
  0
DICTIONARYVAR
  5
1B989
102
{ACAD_REACTORS
330
5E
102
}
330
5E
100
DictionaryVariables
280
     0
  1
2
  0
DICTIONARYVAR
  5
1B988
102
{ACAD_REACTORS
330
5E
102
}
330
5E
100
DictionaryVariables
280
     0
  1
1
  0
DICTIONARYVAR
  5
1B9DB
102
{ACAD_REACTORS
330
5E
102
}
330
5E
100
DictionaryVariables
280
     0
  1
80.000000
  0
DICTIONARYVAR
  5
1B9DA
102
{ACAD_REACTORS
330
5E
102
}
330
5E
100
DictionaryVariables
280
     0
  1
5.000000
  0
DICTIONARYVAR
  5
1B98A
102
{ACAD_REACTORS
330
5E
102
}
330
5E
100
DictionaryVariables
280
     0
  1
127
  0
DICTIONARYVAR
  5
1B9DC
102
{ACAD_REACTORS
330
5E
102
}
330
5E
100
DictionaryVariables
280
     0
  1
2
  0
DICTIONARY
  5
1BA1E
330
21C
100
AcDbDictionary
280
     1
281
     1
  3
ACAD_XREC_ROUNDTRIP
360
1BA1F
  0
DICTIONARY
  5
1B9E3
330
D3
100
AcDbDictionary
280
     1
281
     1
  3
ACAD_XREC_ROUNDTRIP
360
1B9E4
  0
DICTIONARY
  5
1B9E5
330
D7
100
AcDbDictionary
280
     1
281
     1
  3
ACAD_XREC_ROUNDTRIP
360
1B9E6
  0
DICTIONARY
  5
1B9E0
330
22
100
AcDbDictionary
280
     1
281
     1
  3
ACAD_XREC_ROUNDTRIP
360
1B9E1
  0
DICTIONARY
  5
1F9
330
ED
100
AcDbDictionary
280
     1
281
     1
  3
ACAD_XREC_ROUNDTRIP
360
1B9E8
  3
FBXASSET
360
1FA
  0
DICTIONARY
  5
1F7
330
EC
100
AcDbDictionary
280
     1
281
     1
  3
ACAD_XREC_ROUNDTRIP
360
1B9E7
  3
FBXASSET
360
1F8
  0
DICTIONARY
  5
173
330
EE
100
AcDbDictionary
280
     1
281
     1
  3
ACAD_XREC_ROUNDTRIP
360
1B9E9
  3
BUMPTILE
360
175
  3
DIFFUSETILE
360
174
  3
FBXASSET
360
1FB
  3
OPACITYTILE
360
176
  3
REFLECTIONTILE
360
177
  0
DICTIONARY
  5
1BA0A
330
12E
100
AcDbDictionary
280
     1
281
     1
  3
ACAD_XREC_ROUNDTRIP
360
1BA0B
  0
DICTIONARY
  5
1BA1C
330
21A
100
AcDbDictionary
280
     1
281
     1
  3
ACAD_XREC_ROUNDTRIP
360
1BA1D
  0
DICTIONARY
  5
162
330
7F
100
AcDbDictionary
280
     1
281
     1
  3
ACAD_ROUNDTRIP_2008_TABLESTYLE_CELLSTYLEMAP
360
1B9DD
  3
ACAD_XREC_ROUNDTRIP
360
1B9E2
  0
DICTIONARY
  5
1B9F4
330
F5
100
AcDbDictionary
280
     1
281
     1
  3
ACAD_XREC_ROUNDTRIP
360
1B9F5
  0
DICTIONARY
  5
1B9F2
330
F4
100
AcDbDictionary
280
     1
281
     1
  3
ACAD_XREC_ROUNDTRIP
360
1B9F3
  0
DICTIONARY
  5
1BA00
330
FB
100
AcDbDictionary
280
     1
281
     1
  3
ACAD_XREC_ROUNDTRIP
360
1BA01
  0
DICTIONARY
  5
1BA08
330
FF
100
AcDbDictionary
280
     1
281
     1
  3
ACAD_XREC_ROUNDTRIP
360
1BA09
  0
DICTIONARY
  5
1B9FA
330
F8
100
AcDbDictionary
280
     1
281
     1
  3
ACAD_XREC_ROUNDTRIP
360
1B9FB
  0
DICTIONARY
  5
1B9FE
330
FA
100
AcDbDictionary
280
     1
281
     1
  3
ACAD_XREC_ROUNDTRIP
360
1B9FF
  0
DICTIONARY
  5
1BA10
330
1E6
100
AcDbDictionary
280
     1
281
     1
  3
ACAD_XREC_ROUNDTRIP
360
1BA11
  0
DICTIONARY
  5
1BA06
330
FE
100
AcDbDictionary
280
     1
281
     1
  3
ACAD_XREC_ROUNDTRIP
360
1BA07
  0
DICTIONARY
  5
1B9EA
330
F0
100
AcDbDictionary
280
     1
281
     1
  3
ACAD_XREC_ROUNDTRIP
360
1B9EB
  0
DICTIONARY
  5
1B9EC
330
F1
100
AcDbDictionary
280
     1
281
     1
  3
ACAD_XREC_ROUNDTRIP
360
1B9ED
  0
DICTIONARY
  5
1B9EE
330
F2
100
AcDbDictionary
280
     1
281
     1
  3
ACAD_XREC_ROUNDTRIP
360
1B9EF
  0
DICTIONARY
  5
1B9F0
330
F3
100
AcDbDictionary
280
     1
281
     1
  3
ACAD_XREC_ROUNDTRIP
360
1B9F1
  0
DICTIONARY
  5
1B9F8
330
F7
100
AcDbDictionary
280
     1
281
     1
  3
ACAD_XREC_ROUNDTRIP
360
1B9F9
  0
DICTIONARY
  5
1BA0C
330
1E4
100
AcDbDictionary
280
     1
281
     1
  3
ACAD_XREC_ROUNDTRIP
360
1BA0D
  0
DICTIONARY
  5
1BA04
330
FD
100
AcDbDictionary
280
     1
281
     1
  3
ACAD_XREC_ROUNDTRIP
360
1BA05
  0
DICTIONARY
  5
1BA0E
330
1E5
100
AcDbDictionary
280
     1
281
     1
  3
ACAD_XREC_ROUNDTRIP
360
1BA0F
  0
DICTIONARY
  5
1B9FC
330
F9
100
AcDbDictionary
280
     1
281
     1
  3
ACAD_XREC_ROUNDTRIP
360
1B9FD
  0
DICTIONARY
  5
1BA1A
330
1F3
100
AcDbDictionary
280
     1
281
     1
  3
ACAD_XREC_ROUNDTRIP
360
1BA1B
  0
DICTIONARY
  5
1BA18
330
1F2
100
AcDbDictionary
280
     1
281
     1
  3
ACAD_XREC_ROUNDTRIP
360
1BA19
  0
DICTIONARY
  5
1BA12
330
1EF
100
AcDbDictionary
280
     1
281
     1
  3
ACAD_XREC_ROUNDTRIP
360
1BA13
  0
DICTIONARY
  5
1BA14
330
1F0
100
AcDbDictionary
280
     1
281
     1
  3
ACAD_XREC_ROUNDTRIP
360
1BA15
  0
DICTIONARY
  5
1BA02
330
FC
100
AcDbDictionary
280
     1
281
     1
  3
ACAD_XREC_ROUNDTRIP
360
1BA03
  0
DICTIONARY
  5
1B9F6
330
F6
100
AcDbDictionary
280
     1
281
     1
  3
ACAD_XREC_ROUNDTRIP
360
1B9F7
  0
DICTIONARY
  5
1BA16
330
1F1
100
AcDbDictionary
280
     1
281
     1
  3
ACAD_XREC_ROUNDTRIP
360
1BA17
  0
XRECORD
  5
1BA1F
102
{ACAD_REACTORS
330
1BA1E
102
}
330
1BA1E
100
AcDbXrecord
280
     1
102
DISPLAYNAME
  1
Metric50
102
FLAGS
 90
        0
  0
XRECORD
  5
1B9E4
102
{ACAD_REACTORS
330
1B9E3
102
}
330
1B9E3
100
AcDbXrecord
280
     1
102
SHADEPLOT
 70
     0
102
SHADEPLOTRESLEVEL
 70
     2
102
SHADEPLOTCUSTOMDPI
 70
   300
  0
XRECORD
  5
1B9E6
102
{ACAD_REACTORS
330
1B9E5
102
}
330
1B9E5
100
AcDbXrecord
280
     1
102
SHADEPLOT
 70
     0
102
SHADEPLOTRESLEVEL
 70
     2
102
SHADEPLOTCUSTOMDPI
 70
   300
  0
XRECORD
  5
1B9E1
102
{ACAD_REACTORS
330
1B9E0
102
}
330
1B9E0
100
AcDbXrecord
280
     1
102
SHADEPLOT
 70
     0
102
SHADEPLOTRESLEVEL
 70
     2
102
SHADEPLOTCUSTOMDPI
 70
   300
  0
XRECORD
  5
1B9E8
102
{ACAD_REACTORS
330
1F9
102
}
330
1F9
100
AcDbXrecord
280
     1
102
MATERIAL
148
0.0
149
0.0
149
0.0
 93
        0
 94
       63
282
     0
 72
     1
 77
     1
171
     1
175
     1
179
     1
273
     0
  0
XRECORD
  5
1FA
102
{ACAD_REACTORS
330
1F9
102
}
330
1F9
100
AcDbXrecord
280
     1
 70
     1
 90
429727718
  1
D62C5603-E3A1-4AEA-B7FB-FE5D8D0755AF
310
504B03040A0000080000CC70623B3DEE336E79000000790000001B0000006175746F6465736B2D64657369676E2D7061636B6167652E786D6C3C3F786D6C2076657273696F6E3D22312E302220656E636F64696E673D227574662D3822203F3E3C666F726D6174733E3C666F726D61743E687474703A2F2F736368656D612E
310
6175746F6465736B2E636F6D2F64657369676E2D7061636B6167652F323030393C2F666F726D61743E3C2F666F726D6174733E504B0304140006080800CC70623BD486FD9CA0000000F4000000130000005B436F6E74656E745F54797065735D2E786D6C7D8EC10E82300C865F65E91D8A1E8C310C0EEA1BF002731658846E
310
D98AC1B77784ABF1D8FE5FBFBF75BBCE937A534CCEB38643598122B6FEE978D0B0485F9C41B54DDD7D022595594E1A469170414C76A4D9A4D207E29CF43ECE46F218070CC6BECC4078ACAA135ACF422C856C0E68EA1BF5669944DDD7BCDE7B1F8E415D77AECB980613C2E4AC91FC167A2B244592486606FC29C8FD7F045B9A
310
EF7053A7E60B504B0304140006080800CC70623B853B8169EB0000007C01000008000000636F72652E786D6C8D90416EC3201045AF62CDB6C206821CC7C244919D9CA01740401C94182C03558F5F9C3852BBEB6A467FFE9B197D7EFC9E1EC5975982F5AE035262288C535E5B377690E21535501C055FBC8FBF6C503839990E
310
5619041F179FE64D52DE45E362569DD7661365082642A11EB9E920A89B99642953CC8E702F67A9EE7234257977194EC9EAE275C4EABCCF5EAD5940D4AC6F0E35A568B8F43562CD7046CD199FD07E60174276A7BE677B5EADB0E0D14EEFFB6A31321A0D82627C4084204C3F096B71DD52F6819B16635EADF63F509AF53FA164
310
5DDCD1EDDD17164090FCC8732078B56691CB33A85CD7DCC40F504B0304140006080800CC70623B55019EA25F0000007C00000007000000636E782E786D6C4DCB3B0E80201045D1AD90E915ED2CF8AC45050C11660C8261F98AB1B07AC9C97D42D718D865D3E909258CFD00CCE24AC6E326A164D74DC0B4128928FF32603847
310
2BA13128B1252AC747C6BAB984FC68F0B87FE8960A5C09FE86CFB69FBA01504B0304140006080800CC70623BDBABAAF470010000D40300000C0000006662782F636F72652E786D6CC553D16E823014FD95A6AF4B694182CC941A83FA05FB810A9511A125A5257EFE2E82712ECEB8A7F100CD39F7F69E734AF9FADC366850B6
310
AF8DCE7018308C942E4C59EB2AC3DE1D498AD15A706B8CFB56869196ADCAF00863C12B6B7C374385D14E6907A836A59A41D9F7CA615434B0C8705F7CAA5606D23BA8E84F41278B93AC54100640439DE0BDB320004D43C63716C7C399D30917DCFBBA9CD9BA8469F5B156168B24CED3F7248AC8769F27244EB73B92EED8862C
310
B7F13E0C179B3C8F979C8ECD82BBBABDAA2BAC924E9558448CBD9330242CFA08E3154B5651FCC6D215639C8EE5774DBE2B5F6CF2B5768B68963BB5F5588420E442FC700B1139D4CB01F450C1E918227C2E09DF070D8140C84E1E9AAB8F1340832A9CB13130A5F1376A908D57309505ECF2A0DF179C4E9D30F5B239B87E3823
310
7A79C6F31DE1A8A5AEC08474B03C7837EAE4938639B44E5932B833D2C6B6B279CDC613877FA26EE21F4A2A4C63EC7F29A2F301D1F9F7A0E37D145F504B0304140006080800CC70623B9C113CC27E0000009D0000000B0000006662782F636E782E786D6C4DCCDF0A83201C86E15B91DFB94BFB330DD428C8FB886521330DA7
310
6397BF1A1DECE883878F57749FCDA1B7892F1BBC047A23808C7F84D9FA55424E0BE6803A256208E9EF06C84F9B91703228B1C690F78B66B34CD9A5439DF5CF0BFBF65E35BCA1B8D6A5C6F540381E886698B5741C695F9503EBA150A2F8958E3DC3EA0B504B0304140006080800CC70623B7DF2F77C2A010000120200003100
310
00006662782F41393633353835312D344632462D344230382D423046372D3739314545314133324237412F636F72652E786D6C8D51DB8EC22014FC15C2939B0D2DB4B45643319AE817EC0F6041255A68B86CFCFC856D4D76DF7CE190393373060EDB3DC707F856CE6B6B7A480A0C81328395DA5C7B18C3057510EC3873D686
310
3F34088C18550F330C39BB3A1BA7051AAC09CA84841A2BD5020AEF55806078A44B0FFD7053A328440C89E1EFC52486BBB8AA8214A99D789CF9E05200300FC927E4FB4D5B375D43103D5527440FB843077C5AA3F5861C8F645F5787F59E95B390B318B55CE45AA638FAA2957BD7248B390B7A7CC51F9C124149C82B8C378810
310
84AB2F42B7B8DD56F413775B8C5999E9FF4471926F8AA236A1AE96B8B3CC434E5839373893369E1FAF30EA395917409EB7F26AF8801C171837A4A6AC9C89E9F9C9B1A58BA30FD6A5EF5DDDCF894B9AD9B6A59C957943A9FCAE2FD5BC4DFE03504B0304140006080800CC70623BAD7543B64E01000033030000300000006662
310
782F41393633353835312D344632462D344230382D423046372D3739314545314133324237412F636E782E786D6CD593CD6EC32010845F0571AD6CE3D48AD20813A9873E410FBD12D82434182C7EAAE6EDBB2424CD25871E7B41D6EC30B3FA84F9E67BB2E40B4234DE8DB46F1925E094D7C6ED479AD3AE5951B2113C789FEE
310
6C943839C1488B4C05DF079FE72A69D8C96C13AAD6B8631503449F83828872B949AC57D26200B826A308D316B4064D6E46FCDA41C05550DC9E483A00797BFD207EFB092A45DE9514C1BBD22178396BD39D891265658C238DEA00936C654E5E433CB65A26D9F6EDB5EBC14EBF49A45CB856E66048291F6939A9A81BB5C89177
310
38143CA680F4AA299D66A042CEB3354A2684DC9D8D178FE0D9B8B41CAAD720F880EE7EF93C0C18769E099ECC04D5A102C8049A8A05632F4DDF376CF1DE0F6BB65C2F8627B65A33C6BB62177CEBBDAD973006829F89F22E814B54F4BC2BE347F8AA8F681390B50FA73F804400B5F542E796F19FF974E7F78DB802FE05E20750
310
4B0304140006080800CC70623BE75B7789680500003C100000340000006662782F41393633353835312D344632462D344230382D423046372D3739314545314133324237412F6F626A656374732E786D6CAD575B8F9B3818FD2B887D06C22499CB8AA1CA655245D5B455A356FB305264C061D8018C6C3393D95FBFC7600890
310
A4CD5EF210B0B1BFEBF98E3F7B1FF6596ABC522E1296DF9BAE3D320D9A872C4AF2F8DE2CE5CEBA358D0FBEC719939D65A691938CDE9B6ADAF4BD98B3B2D05311DD91329583D9D5FC0F438434A7A611A644887B5384CF34233629258BA878B12322891DEFF6B66BD70BFB62634E8AE781D082709A4B588AF91C528CDA28B73F
310
1C998EEF39EABBEFA97FBD6A7C7E9553F9D3D79FE442923C3C523610337627CB87ABE99D359D4CC6D6E4FACAB5E6ABF9D2726FC6A3C5F56271377BB88362213924694B38DD99FE47C48627A1E7D49F5A8BB5E1A74C0A599ED3B0F21F1E56366B89112D681E218F0915D0D6F17AD41FBA2A369DCF6335D62ABBD39779D5DDD1
310
11D4D8DE3CBB96B2E04FB8202E41051754A1AA8E8F76B4C6DFE810B580B1547F4B84911149794252234D024EF8BBE963A95AE27B3D310A9D5C215C7960FAEE415ED75694C6AFB17BCACA5D99A60A9AA65F217B0BFC53292ACB92BF283FAD0D3621576592CB5BED907C2FA8E9DF794E35E97BEA31BED21FEB401ABB94C44839
310
DCACBF0E1C5DA8DA5B2F4DFFD32AD86F543D9E565E7056502E157C00AD2671CD534549AB752FCA9CDA00677A313F04E51B22FF19E57B300579E3C97EB29F682D92935CEC18CF901B7B54FD8C51F362B56FC72FE0B3C1EAE335EDCCBF5AEC39ADB17DC238973F804BA5E6F6BFE7AF1FB32E523BE9F3BD571418E3631DCA4D48
310
5250CF639223210A9446CA30052EDF057BD35F8329C1ECD84552BF0DC8D18BE7BCE23BFE6BD960AB4A7DE79923A103BEBD80F911CBAA2C60DB19B01CF164A5583B772EE6D3FFA56666CBCDA74DC97724A48F9A58967497E489C4D979006FD7A05E227A1EBDD0F737C623387A9C844D3709995625106D157315F8B8392CD4E0
310
A0B9A720C4BE9829CEF37EA1E13111214D53925356365ADA634861B52519DD27A00AEB808EAF0628E6F435519D446F45CF2C9CF5214F0A15B2F6D06B79DA3EE3CBF7F56780D2F4E7EF73A0F5E5B02A38D07DC852C6B7C1FBB6664213E0C39E3EBA7FF4E1AD23EA2829407C85E586727488B751B2DB9502BC7B228A3FD68B6E
310
A65A22397E690AA8D158D7E404EC8CDA235CC3B7D1898680131CEC2CDF2638C65196279577750F15884AEE19F94199155B92B13297978469D4F8D358DF0AEF7631E28DC8F0D9F437D5D39A83B2231A1D52D543813A824EF8D44BCFF2FA6A31BD1E8DAD87F1CCB526B3879935BF59CDADD5C37479BB1CDD4CA7B3556B516589
310
EF352754B706114D9C885EC9131DE6EFEB43D99AFE2391C2F958179413D7CFEF6B1B6DB1E7600F00DE6E5C67454A339A4BA2E0FBA85ED26F045D454F463DBFCE484C2F90F2E5E3666003662ED8F755951A7D1BECD5B30B550B2785C8E7320B7292A4838DDA71BBC863ED7613CAF659337A3354231D4FF4A182A54904C2898C
310
98B28C4AD0CE056CCF332A80986E571EE9DBC305BB5FEB7E509220A58D25CF042D712A806AC0AD0C657FDEF80D2D9CEAA2EE4D1C76F60BFE74219A06527D6F82DF6412526107381E55E353090704D085B52408A8913C4ED159D79BDA71BB4BC506F4831350EB6F975CD22D69BF7AC49B91A2C0A9DDA3D5CA36AD20FC478E37
310
E61844E2352865EBCB61A275A65283CAAA9DD27703B4102F5AF51EF5F573B75CBB5AD38BC845F7A49F82A0966A49C2E3EA5EA0ECD326CD965F1DB402C6FA8B51A4658C5C5E2EC9E214602E55810345408596591009A82E7E7FFACA19EEA299B14A0081A705CB3296EBC14CDF658DCD336EA6D1136881AAEB87B81AB9EE53D5
310
F5EB8BC8362082DA24122F98680A4E7930C01A0079749CEA14382A0783E5EBA5A10F8C098456A03D6A4AEB6BB881E2513747552A5DB22C7EDAF83BD5528081A365F7FF06504B0304140006080000CC70623B000000000000000000000000350000006662782F41393633353835312D344632462D344230382D423046372D37
310
39314545314133324237412F76657274696365732E62696E504B0304140006080800CC70623BF270F1330600000004000000360000006662782F41393633353835312D344632462D344230382D423046372D3739314545314133324237412F747269616E676C65732E62696E636660600000504B0304140006080000CC7062
310
3B000000000000000000000000370000006662782F41393633353835312D344632462D344230382D423046372D3739314545314133324237412F617474726962757465732E62696E504B0304140006080800CC70623B08DA0BD19000000041010000360000006662782F41393633353835312D344632462D344230382D4230
310
46372D3739314545314133324237412F6469726563746F72792E786D6C858F410AC3201045AF22B36F53E9A60B35CBEEBAE80D244E44489C6234F4F835464A48035D0DF398FF9F8AF63D0E6CC63039F212F8F9020C7D47C6792B21C5FE7403D62A1188E2E60C98D7234A5830286103A55745067B9D86B8A3CF9C7F90C11DE6
310
07FB144396D7B6A82D282E9A152AD114D5EF2CB866EEE831B8EEA07A7BB5A8D7D61A2BAAEB7FD5F70921FF497D00504B0304140006080800CC70623BEDD1DC58FD000000A00100003B0000006662782F41393633353835312D344632462D344230382D423046372D3739314545314133324237412F7265736F75726365732F
310
636F72652E786D6C8D504B6E833010BD0A9A6D65B00922041947112427E8052C33A156828DFCA97AFC9A40A576D7CDCCE87D344F8F9FBFE667F689CE6B6B3A6039850C8DB2A336530731DC4903D95970676DF82583CCC8193B5861107C72362E3BA4AC096842428D1D7107A5F7182053CF7474E0D507CE32973124857FE48B
310
540F3961CEF244279DE03EB81420DB9EAC1384436FA353E879B1B182C7A8C75DA3C7F453DF353A1075D537A7BA6464B8F535A99AE14A9A2BBD90E350DD183B5CFABE3AF262350B1EF4FC9351399401471025A527C218A1E53BAB5A5AB765F5469B96525EACF23FA6B88CFF34456DC2A1DCE36E360F82A5202F42F062ED2BAD
310
579969AFDD8A6F504B010214000A0000080000CC70623B3DEE336E79000000790000001B00000000000000000000000000000000006175746F6465736B2D64657369676E2D7061636B6167652E786D6C504B01021400140006080800CC70623BD486FD9CA0000000F40000001300000000000000000000000000B20000005B
310
436F6E74656E745F54797065735D2E786D6C504B01021400140006080800CC70623B853B8169EB0000007C010000080000000000000000000000000083010000636F72652E786D6C504B01021400140006080800CC70623B55019EA25F0000007C000000070000000000000000000000000094020000636E782E786D6C504B
310
01021400140006080800CC70623BDBABAAF470010000D40300000C00000000000000000000000000180300006662782F636F72652E786D6C504B01021400140006080800CC70623B9C113CC27E0000009D0000000B00000000000000000000000000B20400006662782F636E782E786D6C504B01021400140006080800CC70
310
623B7DF2F77C2A010000120200003100000000000000000000000000590500006662782F41393633353835312D344632462D344230382D423046372D3739314545314133324237412F636F72652E786D6C504B01021400140006080800CC70623BAD7543B64E010000330300003000000000000000000000000000D2060000
310
6662782F41393633353835312D344632462D344230382D423046372D3739314545314133324237412F636E782E786D6C504B01021400140006080800CC70623BE75B7789680500003C10000034000000000000000000000000006E0800006662782F41393633353835312D344632462D344230382D423046372D3739314545
310
314133324237412F6F626A656374732E786D6C504B01021400140006080000CC70623B0000000000000000000000003500000000000000000000000000280E00006662782F41393633353835312D344632462D344230382D423046372D3739314545314133324237412F76657274696365732E62696E504B01021400140006
310
080800CC70623BF270F133060000000400000036000000000000000000000000007B0E00006662782F41393633353835312D344632462D344230382D423046372D3739314545314133324237412F747269616E676C65732E62696E504B01021400140006080000CC70623B0000000000000000000000003700000000000000
310
000000000000D50E00006662782F41393633353835312D344632462D344230382D423046372D3739314545314133324237412F617474726962757465732E62696E504B01021400140006080800CC70623B08DA0BD1900000004101000036000000000000000000000000002A0F00006662782F41393633353835312D344632
310
462D344230382D423046372D3739314545314133324237412F6469726563746F72792E786D6C504B01021400140006080800CC70623BEDD1DC58FD000000A00100003B000000000000000000000000000E1000006662782F41393633353835312D344632462D344230382D423046372D3739314545314133324237412F7265
310
736F75726365732F636F72652E786D6C504B0506000000000E000E0080040000641100000000
  0
XRECORD
  5
1B9E7
102
{ACAD_REACTORS
330
1F7
102
}
330
1F7
100
AcDbXrecord
280
     1
102
MATERIAL
148
0.0
149
0.0
149
0.0
 93
        0
 94
       63
282
     0
 72
     1
 77
     1
171
     1
175
     1
179
     1
273
     0
  0
XRECORD
  5
1F8
102
{ACAD_REACTORS
330
1F7
102
}
330
1F7
100
AcDbXrecord
280
     1
 70
     1
 90
429727718
  1
30362254-06B7-45E0-A893-8CFA70E3D6BC
310
504B03040A0000080000CC70623B3DEE336E79000000790000001B0000006175746F6465736B2D64657369676E2D7061636B6167652E786D6C3C3F786D6C2076657273696F6E3D22312E302220656E636F64696E673D227574662D3822203F3E3C666F726D6174733E3C666F726D61743E687474703A2F2F736368656D612E
310
6175746F6465736B2E636F6D2F64657369676E2D7061636B6167652F323030393C2F666F726D61743E3C2F666F726D6174733E504B0304140006080800CC70623BD486FD9CA0000000F4000000130000005B436F6E74656E745F54797065735D2E786D6C7D8EC10E82300C865F65E91D8A1E8C310C0EEA1BF002731658846E
310
D98AC1B77784ABF1D8FE5FBFBF75BBCE937A534CCEB38643598122B6FEE978D0B0485F9C41B54DDD7D022595594E1A469170414C76A4D9A4D207E29CF43ECE46F218070CC6BECC4078ACAA135ACF422C856C0E68EA1BF5669944DDD7BCDE7B1F8E415D77AECB980613C2E4AC91FC167A2B244592486606FC29C8FD7F045B9A
310
EF7053A7E60B504B0304140006080800CC70623B1EC5D7A3EB0000007C01000008000000636F72652E786D6C8D90416EC3201045AF82665B6103C6756C6122AB4D4ED00B204C5C94182C03558F5F9C3852BBEB6A467FFE9B197D71FC9E6FE8CBACC17AD7032D0820E3B41FAD9B7A48F1820F808E52ACDEC75F36404ECDA687
310
4D0629A6D5A76597B477D1B89855E747B38B2A041301E95B6E7A08FAD3CCAA50296647B8168BD2573599823EBB0CA76447F43862C7BCCF5EAC59410E4DDD9C7973C2755553CCCFA4C603E3040F1565ED3B1FDE4E432BCA0D9622DAF9795FAF464533826484B498524CD807E51D79ED187F21878E10516EF63F505AC67F42C9
310
BA58B1FDDD071640D2FCC87D2045B96591CB3DA85CB7DCE40F504B0304140006080800CC70623B55019EA25F0000007C00000007000000636E782E786D6C4DCB3B0E80201045D1AD90E915ED2CF8AC45050C11660C8261F98AB1B07AC9C97D42D718D865D3E909258CFD00CCE24AC6E326A164D74DC0B4128928FF32603847
310
2BA13128B1252AC747C6BAB984FC68F0B87FE8960A5C09FE86CFB69FBA01504B0304140006080800CC70623B8C9102E971010000D40300000C0000006662782F636F72652E786D6CC5535B6E833010BC8AE5DF0A6C08340F1947A84D4ED00B38C6A128602363A31CBFCB234A53A551FA553EC09AD9F5CE8C31DB9E9B1AF5CA
310
7695D1198E428A91D2D214952E33ECDD315861B4E5CC1AE3BE9561A445A3323CC098B3D21ADFCE9034DA29ED00D5A6503328BA4E398C640D8B0C77F253352214DE4145770A5B214FA2546114020D759C75CE8200340D19DE981F0F6746269C33EFAB6266AB02A655C74A59CCF365BADC27CB5D902ED22848F6340DF238A141
310
BE88E2F57B92BFEDF23523433367AE6A2EEAA455C2A902F398D2751045018D3FA264435F3771F242571B4A1919CA6F9A7C5B3CD9E42BED16F12C776AEB308F40C848FC700B1139D4891EF410CEC810227CC6846F8386402064270EF5C5C709A05E49676C024C61FC95EA45ED154CA5211D1FF4FB8291A913A68E9B83EBBB33
310
E2A7673CDE118E5AE8124C0807CB8377834E366998436B950D7A7746DAD846D4CFD978E0F04FD455FC5D49D2D4C6FE9722321F10997F0F32DC47FE05504B0304140006080800CC70623BFFEA85907E0000009D0000000B0000006662782F636E782E786D6C4DCCD10A83201886E15B91FFDC95D95A811AB6F23E625948A6C3
310
E9D8E5AF46073BFAE0E1E365ED67B3E8ADC3CB78C7815C7240DA3DFC64DCC221C519D7805AC182F7F1EF06C88D9BE6703008B6049F9E274D7A1E938DBB5AE3D6131B2589BA0D3D965551E0B2EA732C9B9A624AAEB41E3A557677029960D9AFB4EF11165F504B0304140006080800CC70623B4FEEA4082C0100001202000031
310
0000006662782F39464131463745442D413632322D343644302D413938332D3331353338454246344243312F636F72652E786D6C8D515B6EC32010BC0AE2AB55850DD871ED0813254D72825EC00192A2C460F1A872FC42ED48ED5F7E00CDCECCCEB26C731F6FE05B39AFADE921293004CA082BB5B9F43086336A21D870E6AC
310
0D7F68109861543DCC30E4ECE26C9C164858139409093556AA051CBC570102714B8F1E7AF1A5C6A11862480C7F2DA6415C878B2A4891CA89C7990F2E050073937C42DE1DB7E4F87ED8A36D4329AA9B3D46DBAEAD504556557BD81DEBDD0761E52CE42C462D17B996298E3E6BE59E35C962CE821E1FF18553435012728A7187
310
0841987E927A8D9B35ADDF70BBC6989599FE4F1427F9A4286A132ABAC49D651EF234CD5CE04CDA78BA3DC2A8FB645D00B9DF8B57E215725C60BCA2A463E54C4CE327C7A65E1C7DB02E7DEFCBF594B864C5CA6CDBD49C957943E9FA5D5FBAF336F90F504B0304140006080800CC70623BAD7543B64E01000033030000300000
310
006662782F39464131463745442D413632322D343644302D413938332D3331353338454246344243312F636E782E786D6CD593CD6EC32010845F0571AD6CE3D48AD20813A9873E410FBD12D82434182C7EAAE6EDBB2424CD25871E7B41D6EC30B3FA84F9E67BB2E40B4234DE8DB46F1925E094D7C6ED479AD3AE5951B2113C
310
789FEE6C943839C1488B4C05DF079FE72A69D8C96C13AAD6B8631503449F83828872B949AC57D26200B826A308D316B4064D6E46FCDA41C05550DC9E483A00797BFD207EFB092A45DE9514C1BBD22178396BD39D891265658C238DEA00936C654E5E433CB65A26D9F6EDB5EBC14EBF49A45CB856E66048291F6939A9A81BB5
310
C8917738143CA680F4AA299D66A042CEB3354A2684DC9D8D178FE0D9B8B41CAAD720F880EE7EF93C0C18769E099ECC04D5A102C8049A8A05632F4DDF376CF1DE0F6BB65C2F8627B65A33C6BB62177CEBBDAD973006829F89F22E814B54F4BC2BE347F8AA8F681390B50FA73F804400B5F542E796F19FF974E7F78DB802FE05
310
E207504B0304140006080800CC70623B16AB87BA640500003C100000340000006662782F39464131463745442D413632322D343644302D413938332D3331353338454246344243312F6F626A656374732E786D6CAD575B6FA33818FD2B887DE6924B3BED8A326A92B68A663B534DD4D13E548A0C38942D60649B369D5FBFC7
310
600890A493BDE42160637FD7F31D7FF63E6FB3D478A55C242CBF3247B66B1A340F5994E4F19559CA8D75611A9F7D8F33263BCB4C232719BD32D5B4E97B316765A1A722BA21652A07B3B7B33F0D11D29C9A46981221AE4C113ED38CD8A4942CA2E2C58E882476BCD9DA23BB5ED8171B73523C0F841684D35CC252CCE79062D4
310
468DFA43D7747CCF51DF7D4FFDEB5593E3AB9CCA9FBEFE241792E4E19EB28198C968BAB8199F5D5A67D3E9C49A9E8F47D6EC76B6B0469F26EEFC7C3EBFBCBEB98462213924694B38DD98FE1D62C393D073EA4FADC5DAF04326852CCF6958F90F0F2B9BB5C48816348F90C7840A68EB78EDF68723159BCEE7891A6B95DDE9D3
310
BCEAEEE8086A6C6F9E5D4B59F0175C10A7A0820BAA5055C7473B5AE3CFDD452D602CD5DF12616444529E90D448938013FE6EFA58AA96F85E4F8C42275708571E98FE6827AF6B2B4AE3D7D83D64E5A64C53054DD3AF90BD06FEA9149565C94FCA0F6B834DC85599E4F2423B24DF0B6AFA979E534DFA9E7A4CC6FA631D486393
310
921829879BF5D781A373557BCB85E97FB90DB62B558F8795179C15944B051F40AB495CF35451D26A4727654E6D8033BD98EF82F21D91FF8AF2DD9982BCF1643BDD4EB516C9492E368C67C88DED563FC36D5EACF66DFF057C3658BDBFA69DF9578B3DA735B64F18C7F20770A9D45CFCF7FCF563D6456A277DBEF78A02637CA2
310
43B90A490AEAB94F72244481D24819A6C0E59B606BFA4B3025981DBB48EAB701D97BF19C577CC77F2D1B6C55A9EF3C732474C0B727303F625995056C3B02963D9EAC146BE78EC5FCEC7FA999EBC5EACBAAE41B12D27B4D2C0BBA49F244E2ECDC81B76B502F113D8F5EE8FB1BE3111CDD4FC2AA9B844CAB1288B68AB90A7CDC
310
1C166AB0D3DC5310625FCC14E779BFD0709F8890A629C9292B1B2DED31A4B0DA928CEE135085754027E3018A397D4D5427D15BD1330B677DC8934285AC3DF45A9EB68FF8F2B8FC0A509AFEECFD0FF2DE25CC6047F7214B195F07EFEB9A094D800F7BFAE8FED187B78EA8A3A400F115961BCAD1215E47C966530AF0EE8128FE
310
58CEBB996A8964FFA529A046635D9353B0336A8F700DDF46271A024E70B0B37C9DE01847591E54DED53D54202AB947E4076556AC49C6CA5C9E1226B7F1A7B1BE15DEED62C41B91E1B3E9AFAAA735036547343A925075041DF0A9979E893B391F8FCFA6967B3EFB644DCF6E5CEBFAE272625DCC6FAF3FB93793C5F90CE1EF57
310
407342756B10D1C489E8953CD1617E5CEECAD6F4EF8914CE5D5D504E5C3F1F9736DA62CFC11E00BCDDB8CC8A9466349744C1F75EBDA4DF09BA8A9E8C7A7E9991989E20E5DBDD6A6003664ED8F7A04A8DBE0DF6EAD9B9AA858342E47399053949D2C146EDB85DE4B176BB0965FBAC19BD19AA918E27FA50C1D22402E144464C
310
59462568E704B6E71915404CB72B8FF4EDE184DDAF753F284990D2C6926782963815403548A70C657FDEF80D2D9CEAA2AE4C1C76F60BFE74219A06527D6582DF6412526107381E55E353090704D085B52408D0933C4ED159D79BDA71BB4BC506F4831350EB6F979CD22D69BF7AC49B91A2C0A9DDA3D5CA36AD20FC478E37E6
310
1844E2352865EBCB6EA275A652E3836BE04EFB400BF1A2556F515F1FBB35B2AB35BD889C744FFA1004B5544B121E57F70215746DD2F5E2C1412B602CBF19455AC6C8E5E9922C4E01E65215385004546899059180EAFCF7A707CE7017CD8CDB0410789AB32C63B91E5CEBBBACB17AC6CD347A022D5075FD106377347AAABA7E
310
7D11590744509B44E205134DC1290F06580320F78E537D3D73540E06CB970B431F185308AD40BBD794D6D77003C5A36E8EAA54BA64597CD8F83BD552A080A365F7FF06504B0304140006080000CC70623B000000000000000000000000350000006662782F39464131463745442D413632322D343644302D413938332D3331
310
353338454246344243312F76657274696365732E62696E504B0304140006080800CC70623BF270F1330600000004000000360000006662782F39464131463745442D413632322D343644302D413938332D3331353338454246344243312F747269616E676C65732E62696E636660600000504B0304140006080000CC70623B
310
000000000000000000000000370000006662782F39464131463745442D413632322D343644302D413938332D3331353338454246344243312F617474726962757465732E62696E504B0304140006080800CC70623B08DA0BD19000000041010000360000006662782F39464131463745442D413632322D343644302D413938
310
332D3331353338454246344243312F6469726563746F72792E786D6C858F410AC3201045AF22B36F53E9A60B35CBEEBAE80D244E44489C6234F4F835464A48035D0DF398FF9F8AF63D0E6CC63039F212F8F9020C7D47C6792B21C5FE7403D62A1188E2E60C98D7234A5830286103A55745067B9D86B8A3CF9C7F90C11DE607
310
FB144396D7B6A82D282E9A152AD114D5EF2CB866EEE831B8EEA07A7BB5A8D7D61A2BAAEB7FD5F70921FF497D00504B0304140006080800CC70623B0D6EF93BFE000000A00100003B0000006662782F39464131463745442D413632322D343644302D413938332D3331353338454246344243312F7265736F75726365732F63
310
6F72652E786D6C8D50596E833010BD0A9ADFCA60B334011947A8694ED00B586642AC041B79A97AFC9A40A5F6AF3F33A3B7689E1E3F7DCD8FEC139DD7D6F4C0720A191A65476DA61E62B892236427C19DB5E1970C322367EC618541F0C9D9B8EC90B226A009093576C41D94DE63804C3DD2D18357379C652E63480A7FCF17A9
310
EE72C29CE5894E3AC17D702940B63D59270887DE46A7D0F36263058F518FBB468FE9A7BE6A7420864373B8D4873369AA8691FA421B3294352543C5CAF65C0F6FEF43CB8BD52C78D0F34F46E550061C419494B6843142CB0F5677F4B52BEB177AEC28E5C52AFF638ACBF84F53D42654E51E77B379102C05791282176B5F693D
310
CB4C7BED567C03504B010214000A0000080000CC70623B3DEE336E79000000790000001B00000000000000000000000000000000006175746F6465736B2D64657369676E2D7061636B6167652E786D6C504B01021400140006080800CC70623BD486FD9CA0000000F40000001300000000000000000000000000B20000005B
310
436F6E74656E745F54797065735D2E786D6C504B01021400140006080800CC70623B1EC5D7A3EB0000007C010000080000000000000000000000000083010000636F72652E786D6C504B01021400140006080800CC70623B55019EA25F0000007C000000070000000000000000000000000094020000636E782E786D6C504B
310
01021400140006080800CC70623B8C9102E971010000D40300000C00000000000000000000000000180300006662782F636F72652E786D6C504B01021400140006080800CC70623BFFEA85907E0000009D0000000B00000000000000000000000000B30400006662782F636E782E786D6C504B01021400140006080800CC70
310
623B4FEEA4082C0100001202000031000000000000000000000000005A0500006662782F39464131463745442D413632322D343644302D413938332D3331353338454246344243312F636F72652E786D6C504B01021400140006080800CC70623BAD7543B64E010000330300003000000000000000000000000000D5060000
310
6662782F39464131463745442D413632322D343644302D413938332D3331353338454246344243312F636E782E786D6C504B01021400140006080800CC70623B16AB87BA640500003C1000003400000000000000000000000000710800006662782F39464131463745442D413632322D343644302D413938332D3331353338
310
454246344243312F6F626A656374732E786D6C504B01021400140006080000CC70623B0000000000000000000000003500000000000000000000000000270E00006662782F39464131463745442D413632322D343644302D413938332D3331353338454246344243312F76657274696365732E62696E504B01021400140006
310
080800CC70623BF270F133060000000400000036000000000000000000000000007A0E00006662782F39464131463745442D413632322D343644302D413938332D3331353338454246344243312F747269616E676C65732E62696E504B01021400140006080000CC70623B0000000000000000000000003700000000000000
310
000000000000D40E00006662782F39464131463745442D413632322D343644302D413938332D3331353338454246344243312F617474726962757465732E62696E504B01021400140006080800CC70623B08DA0BD190000000410100003600000000000000000000000000290F00006662782F39464131463745442D413632
310
322D343644302D413938332D3331353338454246344243312F6469726563746F72792E786D6C504B01021400140006080800CC70623B0D6EF93BFE000000A00100003B000000000000000000000000000D1000006662782F39464131463745442D413632322D343644302D413938332D3331353338454246344243312F7265
310
736F75726365732F636F72652E786D6C504B0506000000000E000E0080040000641100000000
  0
XRECORD
  5
1B9E9
102
{ACAD_REACTORS
330
173
102
}
330
173
100
AcDbXrecord
280
     1
102
MATERIAL
148
0.0
149
0.0
149
0.0
 93
        0
 94
       63
282
     0
 72
     1
 77
     1
171
     1
175
     1
179
     1
273
     0
  0
XRECORD
  5
175
102
{ACAD_REACTORS
330
173
102
}
330
173
100
AcDbXrecord
280
     1
270
     1
271
     1
  0
XRECORD
  5
174
102
{ACAD_REACTORS
330
173
102
}
330
173
100
AcDbXrecord
280
     1
270
     1
271
     1
  0
XRECORD
  5
1FB
102
{ACAD_REACTORS
330
173
102
}
330
173
100
AcDbXrecord
280
     1
 70
     0
 90
1673772943
  1
ECE7A1D2-D628-4531-984C-D00F80459256
310
504B03040A0000080000CC70623B3DEE336E79000000790000001B0000006175746F6465736B2D64657369676E2D7061636B6167652E786D6C3C3F786D6C2076657273696F6E3D22312E302220656E636F64696E673D227574662D3822203F3E3C666F726D6174733E3C666F726D61743E687474703A2F2F736368656D612E
310
6175746F6465736B2E636F6D2F64657369676E2D7061636B6167652F323030393C2F666F726D61743E3C2F666F726D6174733E504B0304140006080800CC70623BD486FD9CA0000000F4000000130000005B436F6E74656E745F54797065735D2E786D6C7D8EC10E82300C865F65E91D8A1E8C310C0EEA1BF002731658846E
310
D98AC1B77784ABF1D8FE5FBFBF75BBCE937A534CCEB38643598122B6FEE978D0B0485F9C41B54DDD7D022595594E1A469170414C76A4D9A4D207E29CF43ECE46F218070CC6BECC4078ACAA135ACF422C856C0E68EA1BF5669944DDD7BCDE7B1F8E415D77AECB980613C2E4AC91FC167A2B244592486606FC29C8FD7F045B9A
310
EF7053A7E60B504B0304140006080800CC70623BD9DDAED0EC0000007C01000008000000636F72652E786D6C8D90416EC3201045AF82665B61836D9CD8C2444DD39CA01740405C94182C03558F5F9C3852BBEB6A467FFE9B197D7EF89E6EE8CB2CC17A37002D0820E394D7D68D03A478C17B4007C117EFE32F1B20272733C0
310
2A83E0E3E2D3BC49CABB685CCCAAF3DA6CA20CC14440EA969B0182FA34932C648AD911AEC52CD5558EA6A0CF2EC329598D1E47ACCEFBECC59A050463A7EA5833865FEBDD0E37353BE3EE8DBDE3F6786A48D375FBF6CC78B9C282473B3DEFABC5C86834888A900E538A49F5419B9EB47DD5BC907D4F082F57FB1F28CDFA9F50
310
B22ED6D5F6EE030B20687EE43E10BC5CB3C8E51E54AE6B6EE207504B0304140006080800CC70623B55019EA25F0000007C00000007000000636E782E786D6C4DCB3B0E80201045D1AD90E915ED2CF8AC45050C11660C8261F98AB1B07AC9C97D42D718D865D3E909258CFD00CCE24AC6E326A164D74DC0B4128928FF326038
310
472BA13128B1252AC747C6BAB984FC68F0B87FE8960A5C09FE86CFB69FBA01504B0304140006080800CC70623BA24EB22D72010000D40300000C0000006662782F636F72652E786D6CC5535B6E833010BC8AE5DF0A6C5E49888CA3A6694ED00B38E05014B091B1518EDFE511A5A9D228FD2A1F60CDEC7A67C6986DCE4D8D7A
310
69BA4AAB0C073EC548AA5C17952A33ECECD15B61B4E1CC686DBF9561A44423333CC098B3D268D7CE50AE9595CA02AA74216750749DB418E5352C32DCE59FB211BE70162ABA93DF8AFC244AE9073ED050C759670D0840D390E18DF9F1706664C23973AE2A66B62A605A75ACA4C13C4976E1364A12EF355A2EBD384AF65EFA96
310
BC7B8BED2EA6719AAE16FB8491A199335B351775B991C2CA02F390D2D40B028F861F41BCA68B7518BFD0D59A524686F29B26D7164F36B94AD9289CE54E6D1DE6010819891F6E21228B3AD1831EC219194284CF98F06DD01008846CC5A1BEF83801D4CBDC6A1303536877A57A513B0953A94FC707FDBE6064EA84A9E3E6E0FA
310
EE8CF0E9198F7784A316AA0413C2C2F2E0ECA0934D1AE6D05A69BCDE9E91D2A611F573361E38FC1375157F5752AE6B6DFE4B11990F88CCBF0719EE23FF02504B0304140006080800CC70623B408A7D3B7C0000009D0000000B0000006662782F636E782E786D6C4DCCD10A83201886E15B91FFDC552A92A0064DBC8F581632
310
D3703A76F9ABD1C18E3E78F878E5F0D9027ABBFCF2292AE86E2D20171F69F6715550CB827B40839639A5F2770314A7CD293819B45C73AAFB45B35BA61ACAA1C1C7E7855C58C15BC331339661262CC762340413D68D77DA5B42298546CBE6573AF60CEB2F504B0304140006080800CC70623B449FB9BD290100001202000031
310
0000006662782F36394639363044362D344446342D343946362D394244322D3234314243333846323333332F636F72652E786D6C8D515B6EC32010BC0AE22B55850D98B871848994463E412FE002495162B07854397EA176A4F62F3F2C9A9D991D587EB84F37F0AD7D30CEF6905418026DA553C65E7A98E219ED203808EE9D
310
8B7F6810D871D23D2C3014FCE25D9A57483A1BB58D19B54EE9151C43D0110279CB971E06F9A5A7B11A53CC8C70ADE6515EC78BAE4895DB992778883E0700CB907242D17643D7E2538BD869608875438BBAE38922CAC8F1BDD90DB4691A5E2F42C153326A951B95E398B3D1FE599322163C9AE9115F7A3D46ADA0A018778810
310
84E907617BDCEE297BC5BB3DC6BC2EF47FA234AB2745C9D8D8D035EE220B50105E2F0DC1954B9FB747187D9F9D8FA0CCDB042D5FA0C015C65B42DF78BD10F3F3B363CB56C7109DCFDFBBB97E662ED92EB62D13BC2E1BCAE5777DB9966D8A1F504B0304140006080800CC70623BAD7543B64E01000033030000300000006662
310
782F36394639363044362D344446342D343946362D394244322D3234314243333846323333332F636E782E786D6CD593CD6EC32010845F0571AD6CE3D48AD20813A9873E410FBD12D82434182C7EAAE6EDBB2424CD25871E7B41D6EC30B3FA84F9E67BB2E40B4234DE8DB46F1925E094D7C6ED479AD3AE5951B2113C789FEE
310
6C943839C1488B4C05DF079FE72A69D8C96C13AAD6B8631503449F83828872B949AC57D26200B826A308D316B4064D6E46FCDA41C05550DC9E483A00797BFD207EFB092A45DE9514C1BBD22178396BD39D891265658C238DEA00936C654E5E433CB65A26D9F6EDB5EBC14EBF49A45CB856E66048291F6939A9A81BB5C89177
310
38143CA680F4AA299D66A042CEB3354A2684DC9D8D178FE0D9B8B41CAAD720F880EE7EF93C0C18769E099ECC04D5A102C8049A8A05632F4DDF376CF1DE0F6BB65C2F8627B65A33C6BB62177CEBBDAD973006829F89F22E814B54F4BC2BE347F8AA8F681390B50FA73F804400B5F542E796F19FF974E7F78DB802FE05E20750
310
4B0304140006080800CC70623B8D05915C650500003B100000340000006662782F36394639363044362D344446342D343946362D394244322D3234314243333846323333332F6F626A656374732E786D6CAD575B6FA33814FE2B887D06429276DA1565D4266D158D3A339A6846FB502932E050B66023DB74D2FDF5FB190C01
310
9276B2973C046C8ECFF53B17071F77456EBD502133CEAE6CDF9DD81665314F32965ED995DA3A17B6F5310C04E7AA47665B8C14F4CAD6DB7618A48257A5D94AE89654B91AEDDEDDFC61C998326A5B714EA4BCB265FC440BE2924AF184CA6737218AB8E976E7FA6E4338649B0A523E8D98964450A6A029F619B8588D52FE7039
310
B1BD30F0F4F730D0FF866AF6369557DB33949F31A9088B0F848DD8CCFCF9F2767A76E99CCDE733677E3EF59D9BBB9BA5E37F984D16E78BC5E5F5ED25044B25C0C96822E8D60EEFE11B91C581D77CEA34368A1F5329E68CD1B8B61F16D63A1B8E092D294B10C78C4A48EB593D192E7DED9BDEE7995E1B91FDEDD3ACEA9FE831
310
6A756F9F7D4D79F4274C90A7A04248AA51D5F8C718DAE06FB2F75AC4796EBE65D22A88A22223B995679120E2D50E41AA49C260C046A35368846B0BECD0DFF3EBEB8AD4F835768F69B9ADF25C43D30E6B646F807FAA64AD59F61715C7A54127C4AACA98BA3006A9D792DAE165E0D59B61A01FB3A9F9D838D2DAE62445C86166
310
F37564E842E7DE6A69879FEEA2DD5AE7E371E1A5E025154AC307D06A03D73EB5978C58FFA4C8E9033066E0F3BD53BEC1F39F91BE7B55103791EDE6BBB991A2046172CB4581D8B893FA674DDA17A77B3B7C413D1B511FD2743BFF8A38F03A658705E3ADF8015C3A3417FF3D7E439FF591DA0B5F18BC20C1B8981957AE6392A3
310
F43C640C01D1A0B4728E2DD4F26DB4B3C3152A252A3B4E913CEC1C72F012782FF88EFF8637AA552DBEF76408E8A8DE9E50F9E1CB3A2DA0DB1B6039A893B56063DC5B3E3FFB5F72E67AB9FEB4AEC496C4F4C1149625DD662C53E89D7BF0F6151A046260D1337DFDC94502430F83B0EE07A130A224BCAD7DAE1D9FB6CD422FF6
310
920702629C4BB9AE79C12F243C6432A6794E18E5552BA56B431AAB5D91317302B2B071E86C3A42B1A02F999E24061403B5D0EB639195DA655DD3EBEAB4FB862DDF579F014AD0E73C22F99E28DA57FB98E75C6CA2D74D53086D600F4786E0FE3144B771A8A7B900F03594DB8A633CBC49B2EDB69228BB479CF863B5E807AAAB
310
23872F6DFEB4129B949CA33823F58830E86D65621E10047D9DB34D862E8EAC3C2ABC2F7B2C40D67CDFE01F5545B92105AF983AC54D93D69E56FB8E797F88913F898A9FEC705D3F9D1B54EC8426FB500D40A03BD0119B06E1B95DDC7EB8F6975367793EBD70E66733DFB9BC982F9CE564727731999F5D4ECFCE3B8D6A4DC2A0
310
6D50FD148437D110834A64C6CDDF57FBACB5C307A2A477DFE4939736CFEF2B175371E0E10CF0DD1D5C15654E0BCA14D1E87DD02FF93782A162C0A3D95F1524A52770F972BF1EE9809D13CE7DD599467F8ECE9ADD85CE85A34CD45355448C64F9E8A031DC2D596ACC6E5DD93D9B82DE2EF5CAF81363A8E47996A0DE24564A79
310
4115AACE09C55E14540231FDA13C319787134EBF34E3A022514E5B4D9E0826E25C02D5805B15ABE1BEF51B26383D445DD9E875EE33FE4C22DA16427D65A3BCA92CA6D28DD01DF5DC53330704308475351050232CCD31583787BA75774AFB06E5070DD0C8EF484E19968C5D83BA5B90B244D31E54D55A372320FE4786B7EA58
310
44E135AA5467CB7EA333A61683CC6A8C3257034C10CF46F40EF9F5BE59BE5BD30C3C72D235E95D10345C1D45445A5F0BB47E46A5EBE5570F9380B5FA629579952296A773720405982B9DE04011506178964401AA8BDF1FBF0A8EAB6861DD6580C0E38217056766716DAEB2D6FA0917D3E4116581EADB879C4E7CFFB11EFACD
310
3D641311495D92C8676CB409A72D18610D803CE8A626049E8EC1887CB5B44CC39883690DDA8399B4B9855B481E7D71D4A9D22F96E5BB73BF5793020C02137BF837504B0304140006080000CC70623B000000000000000000000000350000006662782F36394639363044362D344446342D343946362D394244322D32343142
310
43333846323333332F76657274696365732E62696E504B0304140006080800CC70623BF270F1330600000004000000360000006662782F36394639363044362D344446342D343946362D394244322D3234314243333846323333332F747269616E676C65732E62696E636660600000504B0304140006080000CC70623B0000
310
00000000000000000000370000006662782F36394639363044362D344446342D343946362D394244322D3234314243333846323333332F617474726962757465732E62696E504B0304140006080800CC70623B08DA0BD19000000041010000360000006662782F36394639363044362D344446342D343946362D394244322D
310
3234314243333846323333332F6469726563746F72792E786D6C858F410AC3201045AF22B36F53E9A60B35CBEEBAE80D244E44489C6234F4F835464A48035D0DF398FF9F8AF63D0E6CC63039F212F8F9020C7D47C6792B21C5FE7403D62A1188E2E60C98D7234A5830286103A55745067B9D86B8A3CF9C7F90C11DE607FB14
310
4396D7B6A82D282E9A152AD114D5EF2CB866EEE831B8EEA07A7BB5A8D7D61A2BAAEB7FD5F70921FF497D00504B0304140006080800CC70623BCA768048FE000000A00100003B0000006662782F36394639363044362D344446342D343946362D394244322D3234314243333846323333332F7265736F75726365732F636F72
310
652E786D6C8D50596E833010BD0A9ADFCA60D600328E9AA639412F609909B1126CE4A5EAF16B0295DABFFECC8CDEA2797AECF8353F924FB44E193D409E5248504B332A3D0D10FC95B4901C39B3C6F85F3248B49871801506CE266BC2B243D2688FDA47549B11775038871E12F988C7004EDE7016A9083E2ADC3D5D84BC8B09
310
D33C8D74D471E6BC8D0192EDC93A815B742658898E651BCB59086ADC356A8C3FD555A1055ED7E7E254D615792D0F075295F585746FF53B694EE78A565DD736979A65AB9933AFE69F8CD2A2F038022F28ED489E135A7CE4554F9BBEA85E68DB53CAB255FEC71496F19FA6A0B42F8B3DEE6673C0F318E4497096AD7DC5F52C33
310
EEB55BFE0D504B010214000A0000080000CC70623B3DEE336E79000000790000001B00000000000000000000000000000000006175746F6465736B2D64657369676E2D7061636B6167652E786D6C504B01021400140006080800CC70623BD486FD9CA0000000F40000001300000000000000000000000000B20000005B436F
310
6E74656E745F54797065735D2E786D6C504B01021400140006080800CC70623BD9DDAED0EC0000007C010000080000000000000000000000000083010000636F72652E786D6C504B01021400140006080800CC70623B55019EA25F0000007C000000070000000000000000000000000095020000636E782E786D6C504B0102
310
1400140006080800CC70623BA24EB22D72010000D40300000C00000000000000000000000000190300006662782F636F72652E786D6C504B01021400140006080800CC70623B408A7D3B7C0000009D0000000B00000000000000000000000000B50400006662782F636E782E786D6C504B01021400140006080800CC70623B
310
449FB9BD290100001202000031000000000000000000000000005A0500006662782F36394639363044362D344446342D343946362D394244322D3234314243333846323333332F636F72652E786D6C504B01021400140006080800CC70623BAD7543B64E010000330300003000000000000000000000000000D20600006662
310
782F36394639363044362D344446342D343946362D394244322D3234314243333846323333332F636E782E786D6C504B01021400140006080800CC70623B8D05915C650500003B10000034000000000000000000000000006E0800006662782F36394639363044362D344446342D343946362D394244322D32343142433338
310
46323333332F6F626A656374732E786D6C504B01021400140006080000CC70623B0000000000000000000000003500000000000000000000000000250E00006662782F36394639363044362D344446342D343946362D394244322D3234314243333846323333332F76657274696365732E62696E504B010214001400060808
310
00CC70623BF270F13306000000040000003600000000000000000000000000780E00006662782F36394639363044362D344446342D343946362D394244322D3234314243333846323333332F747269616E676C65732E62696E504B01021400140006080000CC70623B00000000000000000000000037000000000000000000
310
00000000D20E00006662782F36394639363044362D344446342D343946362D394244322D3234314243333846323333332F617474726962757465732E62696E504B01021400140006080800CC70623B08DA0BD190000000410100003600000000000000000000000000270F00006662782F36394639363044362D344446342D
310
343946362D394244322D3234314243333846323333332F6469726563746F72792E786D6C504B01021400140006080800CC70623BCA768048FE000000A00100003B000000000000000000000000000B1000006662782F36394639363044362D344446342D343946362D394244322D3234314243333846323333332F7265736F
310
75726365732F636F72652E786D6C504B0506000000000E000E0080040000621100000000
  0
XRECORD
  5
176
102
{ACAD_REACTORS
330
173
102
}
330
173
100
AcDbXrecord
280
     1
270
     1
271
     1
  0
XRECORD
  5
177
102
{ACAD_REACTORS
330
173
102
}
330
173
100
AcDbXrecord
280
     1
270
     1
271
     1
  0
XRECORD
  5
1BA0B
102
{ACAD_REACTORS
330
1BA0A
102
}
330
1BA0A
100
AcDbXrecord
280
     1
102
ACAD_ROUNDTRIP_2012_MLEADER_STYLE
298
     1
  0
XRECORD
  5
1BA1D
102
{ACAD_REACTORS
330
1BA1C
102
}
330
1BA1C
100
AcDbXrecord
280
     1
102
DISPLAYNAME
  1
Metric50
102
FLAGS
 90
        0
  0
CELLSTYLEMAP
  5
1B9DD
102
{ACAD_REACTORS
330
162
102
}
330
162
100
AcDbCellStyleMap
 90
        3
300
CELLSTYLE
  1
TABLEFORMAT_BEGIN
 90
        5
170
     1
 91
        0
 92
    32768
 62
   257
 93
        1
300
CONTENTFORMAT
  1
CONTENTFORMAT_BEGIN
 90
        0
 91
        0
 92
      512
 93
        0
300

 40
0.0
140
1.0
 94
        5
 62
     0
340
11
144
6.0
309
CONTENTFORMAT_END
171
     1
301
MARGIN
  1
CELLMARGIN_BEGIN
 40
1.5
 40
1.5
 40
1.5
 40
1.5
 40
4.5
 40
4.5
309
CELLMARGIN_END
 94
        6
 95
        1
302
GRIDFORMAT
  1
GRIDFORMAT_BEGIN
 90
        0
 91
        1
 62
     0
 92
       -2
340
14
 93
        0
 40
1.125
309
GRIDFORMAT_END
 95
        2
302
GRIDFORMAT
  1
GRIDFORMAT_BEGIN
 90
        0
 91
        1
 62
     0
 92
       -2
340
14
 93
        0
 40
1.125
309
GRIDFORMAT_END
 95
        4
302
GRIDFORMAT
  1
GRIDFORMAT_BEGIN
 90
        0
 91
        1
 62
     0
 92
       -2
340
14
 93
        0
 40
1.125
309
GRIDFORMAT_END
 95
        8
302
GRIDFORMAT
  1
GRIDFORMAT_BEGIN
 90
        0
 91
        1
 62
     0
 92
       -2
340
14
 93
        0
 40
1.125
309
GRIDFORMAT_END
 95
       16
302
GRIDFORMAT
  1
GRIDFORMAT_BEGIN
 90
        0
 91
        1
 62
     0
 92
       -2
340
14
 93
        0
 40
1.125
309
GRIDFORMAT_END
 95
       32
302
GRIDFORMAT
  1
GRIDFORMAT_BEGIN
 90
        0
 91
        1
 62
     0
 92
       -2
340
14
 93
        0
 40
1.125
309
GRIDFORMAT_END
309
TABLEFORMAT_END
  1
CELLSTYLE_BEGIN
 90
        1
 91
        1
300
_TITLE
309
CELLSTYLE_END
300
CELLSTYLE
  1
TABLEFORMAT_BEGIN
 90
        5
170
     1
 91
        0
 92
        0
 62
   257
 93
        1
300
CONTENTFORMAT
  1
CONTENTFORMAT_BEGIN
 90
        0
 91
        0
 92
      512
 93
        0
300

 40
0.0
140
1.0
 94
        5
 62
     0
340
11
144
4.5
309
CONTENTFORMAT_END
171
     1
301
MARGIN
  1
CELLMARGIN_BEGIN
 40
1.5
 40
1.5
 40
1.5
 40
1.5
 40
4.5
 40
4.5
309
CELLMARGIN_END
 94
        6
 95
        1
302
GRIDFORMAT
  1
GRIDFORMAT_BEGIN
 90
        0
 91
        1
 62
     0
 92
       -2
340
14
 93
        0
 40
1.125
309
GRIDFORMAT_END
 95
        2
302
GRIDFORMAT
  1
GRIDFORMAT_BEGIN
 90
        0
 91
        1
 62
     0
 92
       -2
340
14
 93
        0
 40
1.125
309
GRIDFORMAT_END
 95
        4
302
GRIDFORMAT
  1
GRIDFORMAT_BEGIN
 90
        0
 91
        1
 62
     0
 92
       -2
340
14
 93
        0
 40
1.125
309
GRIDFORMAT_END
 95
        8
302
GRIDFORMAT
  1
GRIDFORMAT_BEGIN
 90
        0
 91
        1
 62
     0
 92
       -2
340
14
 93
        0
 40
1.125
309
GRIDFORMAT_END
 95
       16
302
GRIDFORMAT
  1
GRIDFORMAT_BEGIN
 90
        0
 91
        1
 62
     0
 92
       -2
340
14
 93
        0
 40
1.125
309
GRIDFORMAT_END
 95
       32
302
GRIDFORMAT
  1
GRIDFORMAT_BEGIN
 90
        0
 91
        1
 62
     0
 92
       -2
340
14
 93
        0
 40
1.125
309
GRIDFORMAT_END
309
TABLEFORMAT_END
  1
CELLSTYLE_BEGIN
 90
        2
 91
        1
300
_HEADER
309
CELLSTYLE_END
300
CELLSTYLE
  1
TABLEFORMAT_BEGIN
 90
        5
170
     1
 91
        0
 92
        0
 62
   257
 93
        1
300
CONTENTFORMAT
  1
CONTENTFORMAT_BEGIN
 90
        0
 91
        0
 92
      512
 93
        0
300

 40
0.0
140
1.0
 94
        2
 62
     0
340
11
144
4.5
309
CONTENTFORMAT_END
171
     1
301
MARGIN
  1
CELLMARGIN_BEGIN
 40
1.5
 40
1.5
 40
1.5
 40
1.5
 40
4.5
 40
4.5
309
CELLMARGIN_END
 94
        6
 95
        1
302
GRIDFORMAT
  1
GRIDFORMAT_BEGIN
 90
        0
 91
        1
 62
     0
 92
       -2
340
14
 93
        0
 40
1.125
309
GRIDFORMAT_END
 95
        2
302
GRIDFORMAT
  1
GRIDFORMAT_BEGIN
 90
        0
 91
        1
 62
     0
 92
       -2
340
14
 93
        0
 40
1.125
309
GRIDFORMAT_END
 95
        4
302
GRIDFORMAT
  1
GRIDFORMAT_BEGIN
 90
        0
 91
        1
 62
     0
 92
       -2
340
14
 93
        0
 40
1.125
309
GRIDFORMAT_END
 95
        8
302
GRIDFORMAT
  1
GRIDFORMAT_BEGIN
 90
        0
 91
        1
 62
     0
 92
       -2
340
14
 93
        0
 40
1.125
309
GRIDFORMAT_END
 95
       16
302
GRIDFORMAT
  1
GRIDFORMAT_BEGIN
 90
        0
 91
        1
 62
     0
 92
       -2
340
14
 93
        0
 40
1.125
309
GRIDFORMAT_END
 95
       32
302
GRIDFORMAT
  1
GRIDFORMAT_BEGIN
 90
        0
 91
        1
 62
     0
 92
       -2
340
14
 93
        0
 40
1.125
309
GRIDFORMAT_END
309
TABLEFORMAT_END
  1
CELLSTYLE_BEGIN
 90
        3
 91
        2
300
_DATA
309
CELLSTYLE_END
  0
XRECORD
  5
1B9E2
102
{ACAD_REACTORS
330
162
102
}
330
162
100
AcDbXrecord
280
     1
102
ACAD_ROUNDTRIP_PRE2007_TABLESTYLE
 90
      512
 91
        0
  1

 92
      512
 93
        0
  2

 94
      512
 95
        0
  3

  0
XRECORD
  5
1B9F5
102
{ACAD_REACTORS
330
1B9F4
102
}
330
1B9F4
100
AcDbXrecord
280
     1
102
RTVSPost2010Prop28
280
     1
102
RTVSPost2010PropOp28
 70
     1
102
RTVSPost2010Prop29
280
     1
102
RTVSPost2010PropOp29
 70
     1
102
RTVSPost2010Prop30
280
     0
102
RTVSPost2010PropOp30
 70
     1
102
RTVSPost2010Prop31
280
     0
102
RTVSPost2010PropOp31
 70
     1
102
RTVSPost2010Prop32
280
     0
102
RTVSPost2010PropOp32
 70
     1
102
RTVSPost2010Prop33
280
     0
102
RTVSPost2010PropOp33
 70
     1
102
RTVSPost2010Prop34
280
     0
102
RTVSPost2010PropOp34
 70
     1
102
RTVSPost2010Prop35
280
     0
102
RTVSPost2010PropOp35
 70
     1
102
RTVSPost2010Prop36
280
     0
102
RTVSPost2010PropOp36
 70
     1
102
RTVSPost2010Prop37
 90
       50
102
RTVSPost2010PropOp37
 70
     1
102
RTVSPost2010Prop38
140
0.0
102
RTVSPost2010PropOp38
 70
     1
102
RTVSPost2010Prop39
140
1.0
102
RTVSPost2010PropOp39
 70
     1
102
RTVSPost2010Prop40
 90
        0
102
RTVSPost2010PropOp40
 70
     1
102
RTVSPost2010Prop41ColorIndex
 90
       18
102
RTVSPost2010Prop41ColorRGB
 90
        0
102
RTVSPost2010PropOp41
 70
     1
102
RTVSPost2010Prop42
 90
       50
102
RTVSPost2010PropOp42
 70
     1
102
RTVSPost2010Prop43
 90
        3
102
RTVSPost2010PropOp43
 70
     1
102
RTVSPost2010Prop44ColorIndex
 90
        5
102
RTVSPost2010Prop44ColorRGB
 90
      255
102
RTVSPost2010PropOp44
 70
     1
102
RTVSPost2010Prop45
280
     0
102
RTVSPost2010PropOp45
 70
     1
102
RTVSPost2010Prop46
 90
       50
102
RTVSPost2010PropOp46
 70
     1
102
RTVSPost2010Prop47
 90
       50
102
RTVSPost2010PropOp47
 70
     1
102
RTVSPost2010Prop48
 90
       50
102
RTVSPost2010PropOp48
 70
     1
102
RTVSPost2010Prop49
280
     0
102
RTVSPost2010PropOp49
 70
     1
102
RTVSPost2010Prop50
 90
       50
102
RTVSPost2010PropOp50
 70
     1
102
RTVSPost2010Prop51ColorIndex
 90
      256
102
RTVSPost2010Prop51ColorRGB
 90
-16777216
102
RTVSPost2010PropOp51
 70
     0
102
RTVSPost2010Prop52
140
1.0
102
RTVSPost2010PropOp52
 70
     0
102
RTVSPost2010Prop53
 90
        2
102
RTVSPost2010PropOp53
 70
     1
102
RTVSPost2010Prop54
  1
strokes_ogs.tif
102
RTVSPost2010PropOp54
 70
     1
102
RTVSPost2010Prop55
280
     0
102
RTVSPost2010PropOp55
 70
     1
102
RTVSPost2010Prop56
140
1.0
102
RTVSPost2010PropOp56
 70
     1
102
RTVSPost2010Prop57
140
1.0
102
RTVSPost2010PropOp57
 70
     1
102
RTVSPropertyOp0
 70
     1
102
RTVSPropertyOp1
 70
     1
102
RTVSPropertyOp2
 70
     1
102
RTVSPropertyOp3
 70
     1
102
RTVSPropertyOp4
 70
     1
102
RTVSPropertyOp5
 70
     1
102
RTVSPropertyOp6
 70
     1
102
RTVSPropertyOp7
 70
     1
102
RTVSPropertyOp8
 70
     1
102
RTVSPropertyOp9
 70
     1
102
RTVSPropertyOp10
 70
     1
102
RTVSPropertyOp11
 70
     1
102
RTVSPropertyOp12
 70
     1
102
RTVSPropertyOp13
 70
     1
102
RTVSPropertyOp14
 70
     1
102
RTVSPropertyOp15
 70
     1
102
RTVSPropertyOp16
 70
     1
102
RTVSPropertyOp17
 70
     1
102
RTVSPropertyOp18
 70
     1
102
RTVSPropertyOp19
 70
     1
102
RTVSPropertyOp20
 70
     1
102
RTVSPropertyOp21
 70
     1
102
RTVSPropertyOp22
 70
     1
102
RTVSPropertyOp23
 70
     1
102
RTVSPropertyOp24
 70
     1
102
RTVSPropertyOp25
 70
     1
102
RTVSPropertyOp26
 70
     1
102
RTVSPropertyOp27
 70
     1
102
RTVSPropertyOp28
 70
     1
102
RTVSPropertyOp29
 70
     1
102
RTVSPropertyOp30
 70
     1
102
RTVSPropertyOp31
 70
     1
102
RTVSPropertyOp32
 70
     1
102
RTVSPropertyOp33
 70
     1
102
RTVSPropertyOp34
 70
     1
102
RTVSPropertyOp35
 70
     1
102
RTVSPropertyOp36
 70
     1
102
RTVSPropertyOp37
 70
     1
102
RTVSPropertyOp38
 70
     1
102
RTVSPropertyOp39
 70
     1
102
RTVSPropertyOp40
 70
     1
102
RTVSPropertyOp41
 70
     1
102
RTVSPropertyOp42
 70
     1
102
RTVSPropertyOp43
 70
     1
102
RTVSPropertyOp44
 70
     1
102
RTVSPropertyOp45
 70
     1
102
RTVSPropertyOp46
 70
     1
102
RTVSPropertyOp47
 70
     1
102
RTVSPropertyOp48
 70
     1
102
RTVSPropertyOp49
 70
     1
102
RTVSPropertyOp50
 70
     1
102
RTVSPropertyOp51
 70
     0
102
RTVSPropertyOp52
 70
     0
102
RTVSPropertyOp53
 70
     1
102
RTVSPropertyOp54
 70
     1
102
RTVSPropertyOp55
 70
     1
102
RTVSPropertyOp56
 70
     1
102
RTVSPropertyOp57
 70
     1
102
RTVSPropertyOp58
 70
     1
102
RTVSPropertyOp59
 70
     1
102
RTVSPropertyOp60
 70
     1
102
RTVSPropertyOp61
 70
     1
102
RTVSPropertyOp62
 70
     1
  0
XRECORD
  5
1B9F3
102
{ACAD_REACTORS
330
1B9F2
102
}
330
1B9F2
100
AcDbXrecord
280
     1
102
RTVSPost2010Prop28
280
     0
102
RTVSPost2010PropOp28
 70
     1
102
RTVSPost2010Prop29
280
     1
102
RTVSPost2010PropOp29
 70
     1
102
RTVSPost2010Prop30
280
     1
102
RTVSPost2010PropOp30
 70
     1
102
RTVSPost2010Prop31
280
     0
102
RTVSPost2010PropOp31
 70
     1
102
RTVSPost2010Prop32
280
     0
102
RTVSPost2010PropOp32
 70
     1
102
RTVSPost2010Prop33
280
     0
102
RTVSPost2010PropOp33
 70
     1
102
RTVSPost2010Prop34
280
     0
102
RTVSPost2010PropOp34
 70
     1
102
RTVSPost2010Prop35
280
     0
102
RTVSPost2010PropOp35
 70
     1
102
RTVSPost2010Prop36
280
     0
102
RTVSPost2010PropOp36
 70
     1
102
RTVSPost2010Prop37
 90
       50
102
RTVSPost2010PropOp37
 70
     1
102
RTVSPost2010Prop38
140
0.0
102
RTVSPost2010PropOp38
 70
     1
102
RTVSPost2010Prop39
140
1.0
102
RTVSPost2010PropOp39
 70
     1
102
RTVSPost2010Prop40
 90
        0
102
RTVSPost2010PropOp40
 70
     1
102
RTVSPost2010Prop41ColorIndex
 90
       18
102
RTVSPost2010Prop41ColorRGB
 90
        0
102
RTVSPost2010PropOp41
 70
     1
102
RTVSPost2010Prop42
 90
       50
102
RTVSPost2010PropOp42
 70
     1
102
RTVSPost2010Prop43
 90
        3
102
RTVSPost2010PropOp43
 70
     1
102
RTVSPost2010Prop44ColorIndex
 90
        5
102
RTVSPost2010Prop44ColorRGB
 90
      255
102
RTVSPost2010PropOp44
 70
     1
102
RTVSPost2010Prop45
280
     0
102
RTVSPost2010PropOp45
 70
     1
102
RTVSPost2010Prop46
 90
       50
102
RTVSPost2010PropOp46
 70
     1
102
RTVSPost2010Prop47
 90
       50
102
RTVSPost2010PropOp47
 70
     1
102
RTVSPost2010Prop48
 90
       50
102
RTVSPost2010PropOp48
 70
     1
102
RTVSPost2010Prop49
280
     0
102
RTVSPost2010PropOp49
 70
     1
102
RTVSPost2010Prop50
 90
       50
102
RTVSPost2010PropOp50
 70
     1
102
RTVSPost2010Prop51ColorIndex
 90
      256
102
RTVSPost2010Prop51ColorRGB
 90
-16777216
102
RTVSPost2010PropOp51
 70
     0
102
RTVSPost2010Prop52
140
1.0
102
RTVSPost2010PropOp52
 70
     0
102
RTVSPost2010Prop53
 90
        2
102
RTVSPost2010PropOp53
 70
     1
102
RTVSPost2010Prop54
  1
strokes_ogs.tif
102
RTVSPost2010PropOp54
 70
     1
102
RTVSPost2010Prop55
280
     0
102
RTVSPost2010PropOp55
 70
     1
102
RTVSPost2010Prop56
140
1.0
102
RTVSPost2010PropOp56
 70
     1
102
RTVSPost2010Prop57
140
1.0
102
RTVSPost2010PropOp57
 70
     1
102
RTVSPropertyOp0
 70
     1
102
RTVSPropertyOp1
 70
     1
102
RTVSPropertyOp2
 70
     1
102
RTVSPropertyOp3
 70
     1
102
RTVSPropertyOp4
 70
     1
102
RTVSPropertyOp5
 70
     1
102
RTVSPropertyOp6
 70
     1
102
RTVSPropertyOp7
 70
     1
102
RTVSPropertyOp8
 70
     1
102
RTVSPropertyOp9
 70
     1
102
RTVSPropertyOp10
 70
     1
102
RTVSPropertyOp11
 70
     1
102
RTVSPropertyOp12
 70
     1
102
RTVSPropertyOp13
 70
     1
102
RTVSPropertyOp14
 70
     1
102
RTVSPropertyOp15
 70
     1
102
RTVSPropertyOp16
 70
     1
102
RTVSPropertyOp17
 70
     1
102
RTVSPropertyOp18
 70
     1
102
RTVSPropertyOp19
 70
     1
102
RTVSPropertyOp20
 70
     1
102
RTVSPropertyOp21
 70
     1
102
RTVSPropertyOp22
 70
     1
102
RTVSPropertyOp23
 70
     1
102
RTVSPropertyOp24
 70
     1
102
RTVSPropertyOp25
 70
     1
102
RTVSPropertyOp26
 70
     1
102
RTVSPropertyOp27
 70
     1
102
RTVSPropertyOp28
 70
     1
102
RTVSPropertyOp29
 70
     1
102
RTVSPropertyOp30
 70
     1
102
RTVSPropertyOp31
 70
     1
102
RTVSPropertyOp32
 70
     1
102
RTVSPropertyOp33
 70
     1
102
RTVSPropertyOp34
 70
     1
102
RTVSPropertyOp35
 70
     1
102
RTVSPropertyOp36
 70
     1
102
RTVSPropertyOp37
 70
     1
102
RTVSPropertyOp38
 70
     1
102
RTVSPropertyOp39
 70
     1
102
RTVSPropertyOp40
 70
     1
102
RTVSPropertyOp41
 70
     1
102
RTVSPropertyOp42
 70
     1
102
RTVSPropertyOp43
 70
     1
102
RTVSPropertyOp44
 70
     1
102
RTVSPropertyOp45
 70
     1
102
RTVSPropertyOp46
 70
     1
102
RTVSPropertyOp47
 70
     1
102
RTVSPropertyOp48
 70
     1
102
RTVSPropertyOp49
 70
     1
102
RTVSPropertyOp50
 70
     1
102
RTVSPropertyOp51
 70
     0
102
RTVSPropertyOp52
 70
     0
102
RTVSPropertyOp53
 70
     1
102
RTVSPropertyOp54
 70
     1
102
RTVSPropertyOp55
 70
     1
102
RTVSPropertyOp56
 70
     1
102
RTVSPropertyOp57
 70
     1
102
RTVSPropertyOp58
 70
     1
102
RTVSPropertyOp59
 70
     1
102
RTVSPropertyOp60
 70
     1
102
RTVSPropertyOp61
 70
     1
102
RTVSPropertyOp62
 70
     1
  0
XRECORD
  5
1BA01
102
{ACAD_REACTORS
330
1BA00
102
}
330
1BA00
100
AcDbXrecord
280
     1
102
RTVSPost2010Prop28
280
     0
102
RTVSPost2010PropOp28
 70
     1
102
RTVSPost2010Prop29
280
     1
102
RTVSPost2010PropOp29
 70
     1
102
RTVSPost2010Prop30
280
     1
102
RTVSPost2010PropOp30
 70
     1
102
RTVSPost2010Prop31
280
     0
102
RTVSPost2010PropOp31
 70
     1
102
RTVSPost2010Prop32
280
     0
102
RTVSPost2010PropOp32
 70
     1
102
RTVSPost2010Prop33
280
     0
102
RTVSPost2010PropOp33
 70
     1
102
RTVSPost2010Prop34
280
     0
102
RTVSPost2010PropOp34
 70
     1
102
RTVSPost2010Prop35
280
     0
102
RTVSPost2010PropOp35
 70
     1
102
RTVSPost2010Prop36
280
     0
102
RTVSPost2010PropOp36
 70
     1
102
RTVSPost2010Prop37
 90
       50
102
RTVSPost2010PropOp37
 70
     1
102
RTVSPost2010Prop38
140
0.0
102
RTVSPost2010PropOp38
 70
     1
102
RTVSPost2010Prop39
140
1.0
102
RTVSPost2010PropOp39
 70
     1
102
RTVSPost2010Prop40
 90
        0
102
RTVSPost2010PropOp40
 70
     1
102
RTVSPost2010Prop41ColorIndex
 90
       18
102
RTVSPost2010Prop41ColorRGB
 90
        0
102
RTVSPost2010PropOp41
 70
     1
102
RTVSPost2010Prop42
 90
       50
102
RTVSPost2010PropOp42
 70
     1
102
RTVSPost2010Prop43
 90
        3
102
RTVSPost2010PropOp43
 70
     1
102
RTVSPost2010Prop44ColorIndex
 90
        5
102
RTVSPost2010Prop44ColorRGB
 90
      255
102
RTVSPost2010PropOp44
 70
     1
102
RTVSPost2010Prop45
280
     0
102
RTVSPost2010PropOp45
 70
     1
102
RTVSPost2010Prop46
 90
       50
102
RTVSPost2010PropOp46
 70
     1
102
RTVSPost2010Prop47
 90
       50
102
RTVSPost2010PropOp47
 70
     1
102
RTVSPost2010Prop48
 90
       50
102
RTVSPost2010PropOp48
 70
     1
102
RTVSPost2010Prop49
280
     0
102
RTVSPost2010PropOp49
 70
     1
102
RTVSPost2010Prop50
 90
       50
102
RTVSPost2010PropOp50
 70
     1
102
RTVSPost2010Prop51ColorIndex
 90
      256
102
RTVSPost2010Prop51ColorRGB
 90
-16777216
102
RTVSPost2010PropOp51
 70
     0
102
RTVSPost2010Prop52
140
1.0
102
RTVSPost2010PropOp52
 70
     0
102
RTVSPost2010Prop53
 90
        2
102
RTVSPost2010PropOp53
 70
     1
102
RTVSPost2010Prop54
  1
strokes_ogs.tif
102
RTVSPost2010PropOp54
 70
     1
102
RTVSPost2010Prop55
280
     0
102
RTVSPost2010PropOp55
 70
     1
102
RTVSPost2010Prop56
140
1.0
102
RTVSPost2010PropOp56
 70
     1
102
RTVSPost2010Prop57
140
1.0
102
RTVSPost2010PropOp57
 70
     1
102
RTVSPropertyOp0
 70
     1
102
RTVSPropertyOp1
 70
     1
102
RTVSPropertyOp2
 70
     1
102
RTVSPropertyOp3
 70
     1
102
RTVSPropertyOp4
 70
     1
102
RTVSPropertyOp5
 70
     1
102
RTVSPropertyOp6
 70
     1
102
RTVSPropertyOp7
 70
     1
102
RTVSPropertyOp8
 70
     1
102
RTVSPropertyOp9
 70
     1
102
RTVSPropertyOp10
 70
     1
102
RTVSPropertyOp11
 70
     1
102
RTVSPropertyOp12
 70
     1
102
RTVSPropertyOp13
 70
     1
102
RTVSPropertyOp14
 70
     1
102
RTVSPropertyOp15
 70
     1
102
RTVSPropertyOp16
 70
     1
102
RTVSPropertyOp17
 70
     1
102
RTVSPropertyOp18
 70
     1
102
RTVSPropertyOp19
 70
     1
102
RTVSPropertyOp20
 70
     1
102
RTVSPropertyOp21
 70
     1
102
RTVSPropertyOp22
 70
     1
102
RTVSPropertyOp23
 70
     1
102
RTVSPropertyOp24
 70
     1
102
RTVSPropertyOp25
 70
     1
102
RTVSPropertyOp26
 70
     1
102
RTVSPropertyOp27
 70
     1
102
RTVSPropertyOp28
 70
     1
102
RTVSPropertyOp29
 70
     1
102
RTVSPropertyOp30
 70
     1
102
RTVSPropertyOp31
 70
     1
102
RTVSPropertyOp32
 70
     1
102
RTVSPropertyOp33
 70
     1
102
RTVSPropertyOp34
 70
     1
102
RTVSPropertyOp35
 70
     1
102
RTVSPropertyOp36
 70
     1
102
RTVSPropertyOp37
 70
     1
102
RTVSPropertyOp38
 70
     1
102
RTVSPropertyOp39
 70
     1
102
RTVSPropertyOp40
 70
     1
102
RTVSPropertyOp41
 70
     1
102
RTVSPropertyOp42
 70
     1
102
RTVSPropertyOp43
 70
     1
102
RTVSPropertyOp44
 70
     1
102
RTVSPropertyOp45
 70
     1
102
RTVSPropertyOp46
 70
     1
102
RTVSPropertyOp47
 70
     1
102
RTVSPropertyOp48
 70
     1
102
RTVSPropertyOp49
 70
     1
102
RTVSPropertyOp50
 70
     1
102
RTVSPropertyOp51
 70
     0
102
RTVSPropertyOp52
 70
     0
102
RTVSPropertyOp53
 70
     1
102
RTVSPropertyOp54
 70
     1
102
RTVSPropertyOp55
 70
     1
102
RTVSPropertyOp56
 70
     1
102
RTVSPropertyOp57
 70
     1
102
RTVSPropertyOp58
 70
     1
102
RTVSPropertyOp59
 70
     1
102
RTVSPropertyOp60
 70
     1
102
RTVSPropertyOp61
 70
     1
102
RTVSPropertyOp62
 70
     1
  0
XRECORD
  5
1BA09
102
{ACAD_REACTORS
330
1BA08
102
}
330
1BA08
100
AcDbXrecord
280
     1
102
RTVSPost2010Prop28
280
     0
102
RTVSPost2010PropOp28
 70
     1
102
RTVSPost2010Prop29
280
     1
102
RTVSPost2010PropOp29
 70
     1
102
RTVSPost2010Prop30
280
     1
102
RTVSPost2010PropOp30
 70
     1
102
RTVSPost2010Prop31
280
     0
102
RTVSPost2010PropOp31
 70
     1
102
RTVSPost2010Prop32
280
     0
102
RTVSPost2010PropOp32
 70
     1
102
RTVSPost2010Prop33
280
     0
102
RTVSPost2010PropOp33
 70
     1
102
RTVSPost2010Prop34
280
     0
102
RTVSPost2010PropOp34
 70
     1
102
RTVSPost2010Prop35
280
     0
102
RTVSPost2010PropOp35
 70
     1
102
RTVSPost2010Prop36
280
     0
102
RTVSPost2010PropOp36
 70
     1
102
RTVSPost2010Prop37
 90
       50
102
RTVSPost2010PropOp37
 70
     1
102
RTVSPost2010Prop38
140
0.0
102
RTVSPost2010PropOp38
 70
     1
102
RTVSPost2010Prop39
140
1.0
102
RTVSPost2010PropOp39
 70
     1
102
RTVSPost2010Prop40
 90
        0
102
RTVSPost2010PropOp40
 70
     1
102
RTVSPost2010Prop41ColorIndex
 90
       18
102
RTVSPost2010Prop41ColorRGB
 90
        0
102
RTVSPost2010PropOp41
 70
     1
102
RTVSPost2010Prop42
 90
       50
102
RTVSPost2010PropOp42
 70
     1
102
RTVSPost2010Prop43
 90
        3
102
RTVSPost2010PropOp43
 70
     1
102
RTVSPost2010Prop44ColorIndex
 90
        5
102
RTVSPost2010Prop44ColorRGB
 90
      255
102
RTVSPost2010PropOp44
 70
     1
102
RTVSPost2010Prop45
280
     0
102
RTVSPost2010PropOp45
 70
     1
102
RTVSPost2010Prop46
 90
       50
102
RTVSPost2010PropOp46
 70
     1
102
RTVSPost2010Prop47
 90
       50
102
RTVSPost2010PropOp47
 70
     1
102
RTVSPost2010Prop48
 90
       50
102
RTVSPost2010PropOp48
 70
     1
102
RTVSPost2010Prop49
280
     0
102
RTVSPost2010PropOp49
 70
     1
102
RTVSPost2010Prop50
 90
       50
102
RTVSPost2010PropOp50
 70
     1
102
RTVSPost2010Prop51ColorIndex
 90
      256
102
RTVSPost2010Prop51ColorRGB
 90
-16777216
102
RTVSPost2010PropOp51
 70
     0
102
RTVSPost2010Prop52
140
1.0
102
RTVSPost2010PropOp52
 70
     0
102
RTVSPost2010Prop53
 90
        2
102
RTVSPost2010PropOp53
 70
     1
102
RTVSPost2010Prop54
  1
strokes_ogs.tif
102
RTVSPost2010PropOp54
 70
     1
102
RTVSPost2010Prop55
280
     0
102
RTVSPost2010PropOp55
 70
     1
102
RTVSPost2010Prop56
140
1.0
102
RTVSPost2010PropOp56
 70
     1
102
RTVSPost2010Prop57
140
1.0
102
RTVSPost2010PropOp57
 70
     1
102
RTVSPropertyOp0
 70
     1
102
RTVSPropertyOp1
 70
     1
102
RTVSPropertyOp2
 70
     1
102
RTVSPropertyOp3
 70
     1
102
RTVSPropertyOp4
 70
     1
102
RTVSPropertyOp5
 70
     1
102
RTVSPropertyOp6
 70
     1
102
RTVSPropertyOp7
 70
     1
102
RTVSPropertyOp8
 70
     1
102
RTVSPropertyOp9
 70
     1
102
RTVSPropertyOp10
 70
     1
102
RTVSPropertyOp11
 70
     1
102
RTVSPropertyOp12
 70
     1
102
RTVSPropertyOp13
 70
     1
102
RTVSPropertyOp14
 70
     1
102
RTVSPropertyOp15
 70
     1
102
RTVSPropertyOp16
 70
     1
102
RTVSPropertyOp17
 70
     1
102
RTVSPropertyOp18
 70
     1
102
RTVSPropertyOp19
 70
     1
102
RTVSPropertyOp20
 70
     1
102
RTVSPropertyOp21
 70
     1
102
RTVSPropertyOp22
 70
     1
102
RTVSPropertyOp23
 70
     1
102
RTVSPropertyOp24
 70
     1
102
RTVSPropertyOp25
 70
     1
102
RTVSPropertyOp26
 70
     1
102
RTVSPropertyOp27
 70
     1
102
RTVSPropertyOp28
 70
     1
102
RTVSPropertyOp29
 70
     1
102
RTVSPropertyOp30
 70
     1
102
RTVSPropertyOp31
 70
     1
102
RTVSPropertyOp32
 70
     1
102
RTVSPropertyOp33
 70
     1
102
RTVSPropertyOp34
 70
     1
102
RTVSPropertyOp35
 70
     1
102
RTVSPropertyOp36
 70
     1
102
RTVSPropertyOp37
 70
     1
102
RTVSPropertyOp38
 70
     1
102
RTVSPropertyOp39
 70
     1
102
RTVSPropertyOp40
 70
     1
102
RTVSPropertyOp41
 70
     1
102
RTVSPropertyOp42
 70
     1
102
RTVSPropertyOp43
 70
     1
102
RTVSPropertyOp44
 70
     1
102
RTVSPropertyOp45
 70
     1
102
RTVSPropertyOp46
 70
     1
102
RTVSPropertyOp47
 70
     1
102
RTVSPropertyOp48
 70
     1
102
RTVSPropertyOp49
 70
     1
102
RTVSPropertyOp50
 70
     1
102
RTVSPropertyOp51
 70
     0
102
RTVSPropertyOp52
 70
     0
102
RTVSPropertyOp53
 70
     1
102
RTVSPropertyOp54
 70
     1
102
RTVSPropertyOp55
 70
     1
102
RTVSPropertyOp56
 70
     1
102
RTVSPropertyOp57
 70
     1
102
RTVSPropertyOp58
 70
     1
102
RTVSPropertyOp59
 70
     1
102
RTVSPropertyOp60
 70
     1
102
RTVSPropertyOp61
 70
     1
102
RTVSPropertyOp62
 70
     1
  0
XRECORD
  5
1B9FB
102
{ACAD_REACTORS
330
1B9FA
102
}
330
1B9FA
100
AcDbXrecord
280
     1
102
RTVSPost2010Prop28
280
     0
102
RTVSPost2010PropOp28
 70
     1
102
RTVSPost2010Prop29
280
     1
102
RTVSPost2010PropOp29
 70
     1
102
RTVSPost2010Prop30
280
     1
102
RTVSPost2010PropOp30
 70
     1
102
RTVSPost2010Prop31
280
     0
102
RTVSPost2010PropOp31
 70
     1
102
RTVSPost2010Prop32
280
     0
102
RTVSPost2010PropOp32
 70
     1
102
RTVSPost2010Prop33
280
     0
102
RTVSPost2010PropOp33
 70
     1
102
RTVSPost2010Prop34
280
     0
102
RTVSPost2010PropOp34
 70
     1
102
RTVSPost2010Prop35
280
     0
102
RTVSPost2010PropOp35
 70
     1
102
RTVSPost2010Prop36
280
     0
102
RTVSPost2010PropOp36
 70
     1
102
RTVSPost2010Prop37
 90
       50
102
RTVSPost2010PropOp37
 70
     1
102
RTVSPost2010Prop38
140
0.0
102
RTVSPost2010PropOp38
 70
     1
102
RTVSPost2010Prop39
140
1.0
102
RTVSPost2010PropOp39
 70
     1
102
RTVSPost2010Prop40
 90
        0
102
RTVSPost2010PropOp40
 70
     1
102
RTVSPost2010Prop41ColorIndex
 90
       18
102
RTVSPost2010Prop41ColorRGB
 90
        0
102
RTVSPost2010PropOp41
 70
     1
102
RTVSPost2010Prop42
 90
       50
102
RTVSPost2010PropOp42
 70
     1
102
RTVSPost2010Prop43
 90
        3
102
RTVSPost2010PropOp43
 70
     1
102
RTVSPost2010Prop44ColorIndex
 90
        5
102
RTVSPost2010Prop44ColorRGB
 90
      255
102
RTVSPost2010PropOp44
 70
     1
102
RTVSPost2010Prop45
280
     0
102
RTVSPost2010PropOp45
 70
     1
102
RTVSPost2010Prop46
 90
       50
102
RTVSPost2010PropOp46
 70
     1
102
RTVSPost2010Prop47
 90
       50
102
RTVSPost2010PropOp47
 70
     1
102
RTVSPost2010Prop48
 90
       50
102
RTVSPost2010PropOp48
 70
     1
102
RTVSPost2010Prop49
280
     0
102
RTVSPost2010PropOp49
 70
     1
102
RTVSPost2010Prop50
 90
       50
102
RTVSPost2010PropOp50
 70
     1
102
RTVSPost2010Prop51ColorIndex
 90
      256
102
RTVSPost2010Prop51ColorRGB
 90
-16777216
102
RTVSPost2010PropOp51
 70
     0
102
RTVSPost2010Prop52
140
1.0
102
RTVSPost2010PropOp52
 70
     0
102
RTVSPost2010Prop53
 90
        2
102
RTVSPost2010PropOp53
 70
     1
102
RTVSPost2010Prop54
  1
strokes_ogs.tif
102
RTVSPost2010PropOp54
 70
     1
102
RTVSPost2010Prop55
280
     0
102
RTVSPost2010PropOp55
 70
     1
102
RTVSPost2010Prop56
140
1.0
102
RTVSPost2010PropOp56
 70
     1
102
RTVSPost2010Prop57
140
1.0
102
RTVSPost2010PropOp57
 70
     1
102
RTVSPropertyOp0
 70
     1
102
RTVSPropertyOp1
 70
     1
102
RTVSPropertyOp2
 70
     1
102
RTVSPropertyOp3
 70
     1
102
RTVSPropertyOp4
 70
     1
102
RTVSPropertyOp5
 70
     1
102
RTVSPropertyOp6
 70
     1
102
RTVSPropertyOp7
 70
     1
102
RTVSPropertyOp8
 70
     1
102
RTVSPropertyOp9
 70
     1
102
RTVSPropertyOp10
 70
     1
102
RTVSPropertyOp11
 70
     1
102
RTVSPropertyOp12
 70
     1
102
RTVSPropertyOp13
 70
     1
102
RTVSPropertyOp14
 70
     1
102
RTVSPropertyOp15
 70
     1
102
RTVSPropertyOp16
 70
     1
102
RTVSPropertyOp17
 70
     1
102
RTVSPropertyOp18
 70
     1
102
RTVSPropertyOp19
 70
     1
102
RTVSPropertyOp20
 70
     1
102
RTVSPropertyOp21
 70
     1
102
RTVSPropertyOp22
 70
     1
102
RTVSPropertyOp23
 70
     1
102
RTVSPropertyOp24
 70
     1
102
RTVSPropertyOp25
 70
     1
102
RTVSPropertyOp26
 70
     1
102
RTVSPropertyOp27
 70
     1
102
RTVSPropertyOp28
 70
     1
102
RTVSPropertyOp29
 70
     1
102
RTVSPropertyOp30
 70
     1
102
RTVSPropertyOp31
 70
     1
102
RTVSPropertyOp32
 70
     1
102
RTVSPropertyOp33
 70
     1
102
RTVSPropertyOp34
 70
     1
102
RTVSPropertyOp35
 70
     1
102
RTVSPropertyOp36
 70
     1
102
RTVSPropertyOp37
 70
     1
102
RTVSPropertyOp38
 70
     1
102
RTVSPropertyOp39
 70
     1
102
RTVSPropertyOp40
 70
     1
102
RTVSPropertyOp41
 70
     1
102
RTVSPropertyOp42
 70
     1
102
RTVSPropertyOp43
 70
     1
102
RTVSPropertyOp44
 70
     1
102
RTVSPropertyOp45
 70
     1
102
RTVSPropertyOp46
 70
     1
102
RTVSPropertyOp47
 70
     1
102
RTVSPropertyOp48
 70
     1
102
RTVSPropertyOp49
 70
     1
102
RTVSPropertyOp50
 70
     1
102
RTVSPropertyOp51
 70
     0
102
RTVSPropertyOp52
 70
     0
102
RTVSPropertyOp53
 70
     1
102
RTVSPropertyOp54
 70
     1
102
RTVSPropertyOp55
 70
     1
102
RTVSPropertyOp56
 70
     1
102
RTVSPropertyOp57
 70
     1
102
RTVSPropertyOp58
 70
     1
102
RTVSPropertyOp59
 70
     1
102
RTVSPropertyOp60
 70
     1
102
RTVSPropertyOp61
 70
     1
102
RTVSPropertyOp62
 70
     1
  0
XRECORD
  5
1B9FF
102
{ACAD_REACTORS
330
1B9FE
102
}
330
1B9FE
100
AcDbXrecord
280
     1
102
RTVSPost2010Prop28
280
     0
102
RTVSPost2010PropOp28
 70
     1
102
RTVSPost2010Prop29
280
     1
102
RTVSPost2010PropOp29
 70
     1
102
RTVSPost2010Prop30
280
     1
102
RTVSPost2010PropOp30
 70
     1
102
RTVSPost2010Prop31
280
     0
102
RTVSPost2010PropOp31
 70
     1
102
RTVSPost2010Prop32
280
     0
102
RTVSPost2010PropOp32
 70
     1
102
RTVSPost2010Prop33
280
     0
102
RTVSPost2010PropOp33
 70
     1
102
RTVSPost2010Prop34
280
     0
102
RTVSPost2010PropOp34
 70
     1
102
RTVSPost2010Prop35
280
     0
102
RTVSPost2010PropOp35
 70
     1
102
RTVSPost2010Prop36
280
     0
102
RTVSPost2010PropOp36
 70
     1
102
RTVSPost2010Prop37
 90
       50
102
RTVSPost2010PropOp37
 70
     1
102
RTVSPost2010Prop38
140
0.0
102
RTVSPost2010PropOp38
 70
     1
102
RTVSPost2010Prop39
140
1.0
102
RTVSPost2010PropOp39
 70
     1
102
RTVSPost2010Prop40
 90
        0
102
RTVSPost2010PropOp40
 70
     1
102
RTVSPost2010Prop41ColorIndex
 90
       18
102
RTVSPost2010Prop41ColorRGB
 90
        0
102
RTVSPost2010PropOp41
 70
     1
102
RTVSPost2010Prop42
 90
       50
102
RTVSPost2010PropOp42
 70
     1
102
RTVSPost2010Prop43
 90
        3
102
RTVSPost2010PropOp43
 70
     1
102
RTVSPost2010Prop44ColorIndex
 90
        5
102
RTVSPost2010Prop44ColorRGB
 90
      255
102
RTVSPost2010PropOp44
 70
     1
102
RTVSPost2010Prop45
280
     0
102
RTVSPost2010PropOp45
 70
     1
102
RTVSPost2010Prop46
 90
       50
102
RTVSPost2010PropOp46
 70
     1
102
RTVSPost2010Prop47
 90
       50
102
RTVSPost2010PropOp47
 70
     1
102
RTVSPost2010Prop48
 90
       50
102
RTVSPost2010PropOp48
 70
     1
102
RTVSPost2010Prop49
280
     0
102
RTVSPost2010PropOp49
 70
     1
102
RTVSPost2010Prop50
 90
       50
102
RTVSPost2010PropOp50
 70
     1
102
RTVSPost2010Prop51ColorIndex
 90
      256
102
RTVSPost2010Prop51ColorRGB
 90
-16777216
102
RTVSPost2010PropOp51
 70
     0
102
RTVSPost2010Prop52
140
1.0
102
RTVSPost2010PropOp52
 70
     0
102
RTVSPost2010Prop53
 90
        2
102
RTVSPost2010PropOp53
 70
     1
102
RTVSPost2010Prop54
  1
strokes_ogs.tif
102
RTVSPost2010PropOp54
 70
     1
102
RTVSPost2010Prop55
280
     0
102
RTVSPost2010PropOp55
 70
     1
102
RTVSPost2010Prop56
140
1.0
102
RTVSPost2010PropOp56
 70
     1
102
RTVSPost2010Prop57
140
1.0
102
RTVSPost2010PropOp57
 70
     1
102
RTVSPropertyOp0
 70
     1
102
RTVSPropertyOp1
 70
     1
102
RTVSPropertyOp2
 70
     1
102
RTVSPropertyOp3
 70
     1
102
RTVSPropertyOp4
 70
     1
102
RTVSPropertyOp5
 70
     1
102
RTVSPropertyOp6
 70
     1
102
RTVSPropertyOp7
 70
     1
102
RTVSPropertyOp8
 70
     1
102
RTVSPropertyOp9
 70
     1
102
RTVSPropertyOp10
 70
     1
102
RTVSPropertyOp11
 70
     1
102
RTVSPropertyOp12
 70
     1
102
RTVSPropertyOp13
 70
     1
102
RTVSPropertyOp14
 70
     1
102
RTVSPropertyOp15
 70
     1
102
RTVSPropertyOp16
 70
     1
102
RTVSPropertyOp17
 70
     1
102
RTVSPropertyOp18
 70
     1
102
RTVSPropertyOp19
 70
     1
102
RTVSPropertyOp20
 70
     1
102
RTVSPropertyOp21
 70
     1
102
RTVSPropertyOp22
 70
     1
102
RTVSPropertyOp23
 70
     1
102
RTVSPropertyOp24
 70
     1
102
RTVSPropertyOp25
 70
     1
102
RTVSPropertyOp26
 70
     1
102
RTVSPropertyOp27
 70
     1
102
RTVSPropertyOp28
 70
     1
102
RTVSPropertyOp29
 70
     1
102
RTVSPropertyOp30
 70
     1
102
RTVSPropertyOp31
 70
     1
102
RTVSPropertyOp32
 70
     1
102
RTVSPropertyOp33
 70
     1
102
RTVSPropertyOp34
 70
     1
102
RTVSPropertyOp35
 70
     1
102
RTVSPropertyOp36
 70
     1
102
RTVSPropertyOp37
 70
     1
102
RTVSPropertyOp38
 70
     1
102
RTVSPropertyOp39
 70
     1
102
RTVSPropertyOp40
 70
     1
102
RTVSPropertyOp41
 70
     1
102
RTVSPropertyOp42
 70
     1
102
RTVSPropertyOp43
 70
     1
102
RTVSPropertyOp44
 70
     1
102
RTVSPropertyOp45
 70
     1
102
RTVSPropertyOp46
 70
     1
102
RTVSPropertyOp47
 70
     1
102
RTVSPropertyOp48
 70
     1
102
RTVSPropertyOp49
 70
     1
102
RTVSPropertyOp50
 70
     1
102
RTVSPropertyOp51
 70
     0
102
RTVSPropertyOp52
 70
     0
102
RTVSPropertyOp53
 70
     1
102
RTVSPropertyOp54
 70
     1
102
RTVSPropertyOp55
 70
     1
102
RTVSPropertyOp56
 70
     1
102
RTVSPropertyOp57
 70
     1
102
RTVSPropertyOp58
 70
     1
102
RTVSPropertyOp59
 70
     1
102
RTVSPropertyOp60
 70
     1
102
RTVSPropertyOp61
 70
     1
102
RTVSPropertyOp62
 70
     1
  0
XRECORD
  5
1BA11
102
{ACAD_REACTORS
330
1BA10
102
}
330
1BA10
100
AcDbXrecord
280
     1
102
RTVSPost2010Prop28
280
     0
102
RTVSPost2010PropOp28
 70
     1
102
RTVSPost2010Prop29
280
     1
102
RTVSPost2010PropOp29
 70
     1
102
RTVSPost2010Prop30
280
     1
102
RTVSPost2010PropOp30
 70
     1
102
RTVSPost2010Prop31
280
     0
102
RTVSPost2010PropOp31
 70
     1
102
RTVSPost2010Prop32
280
     0
102
RTVSPost2010PropOp32
 70
     1
102
RTVSPost2010Prop33
280
     0
102
RTVSPost2010PropOp33
 70
     1
102
RTVSPost2010Prop34
280
     0
102
RTVSPost2010PropOp34
 70
     1
102
RTVSPost2010Prop35
280
     0
102
RTVSPost2010PropOp35
 70
     1
102
RTVSPost2010Prop36
280
     0
102
RTVSPost2010PropOp36
 70
     1
102
RTVSPost2010Prop37
 90
       50
102
RTVSPost2010PropOp37
 70
     1
102
RTVSPost2010Prop38
140
0.0
102
RTVSPost2010PropOp38
 70
     1
102
RTVSPost2010Prop39
140
1.0
102
RTVSPost2010PropOp39
 70
     1
102
RTVSPost2010Prop40
 90
        0
102
RTVSPost2010PropOp40
 70
     1
102
RTVSPost2010Prop41ColorIndex
 90
       18
102
RTVSPost2010Prop41ColorRGB
 90
        0
102
RTVSPost2010PropOp41
 70
     1
102
RTVSPost2010Prop42
 90
       50
102
RTVSPost2010PropOp42
 70
     1
102
RTVSPost2010Prop43
 90
        3
102
RTVSPost2010PropOp43
 70
     1
102
RTVSPost2010Prop44ColorIndex
 90
        5
102
RTVSPost2010Prop44ColorRGB
 90
      255
102
RTVSPost2010PropOp44
 70
     1
102
RTVSPost2010Prop45
280
     0
102
RTVSPost2010PropOp45
 70
     1
102
RTVSPost2010Prop46
 90
       50
102
RTVSPost2010PropOp46
 70
     1
102
RTVSPost2010Prop47
 90
       50
102
RTVSPost2010PropOp47
 70
     1
102
RTVSPost2010Prop48
 90
       50
102
RTVSPost2010PropOp48
 70
     1
102
RTVSPost2010Prop49
280
     0
102
RTVSPost2010PropOp49
 70
     1
102
RTVSPost2010Prop50
 90
       50
102
RTVSPost2010PropOp50
 70
     1
102
RTVSPost2010Prop51ColorIndex
 90
      256
102
RTVSPost2010Prop51ColorRGB
 90
-16777216
102
RTVSPost2010PropOp51
 70
     0
102
RTVSPost2010Prop52
140
1.0
102
RTVSPost2010PropOp52
 70
     0
102
RTVSPost2010Prop53
 90
        2
102
RTVSPost2010PropOp53
 70
     1
102
RTVSPost2010Prop54
  1
strokes_ogs.tif
102
RTVSPost2010PropOp54
 70
     1
102
RTVSPost2010Prop55
280
     0
102
RTVSPost2010PropOp55
 70
     1
102
RTVSPost2010Prop56
140
1.0
102
RTVSPost2010PropOp56
 70
     1
102
RTVSPost2010Prop57
140
1.0
102
RTVSPost2010PropOp57
 70
     1
102
RTVSPropertyOp0
 70
     0
102
RTVSPropertyOp1
 70
     0
102
RTVSPropertyOp2
 70
     0
102
RTVSPropertyOp3
 70
     0
102
RTVSPropertyOp4
 70
     0
102
RTVSPropertyOp5
 70
     0
102
RTVSPropertyOp6
 70
     0
102
RTVSPropertyOp7
 70
     0
102
RTVSPropertyOp8
 70
     0
102
RTVSPropertyOp9
 70
     0
102
RTVSPropertyOp10
 70
     0
102
RTVSPropertyOp11
 70
     0
102
RTVSPropertyOp12
 70
     0
102
RTVSPropertyOp13
 70
     0
102
RTVSPropertyOp14
 70
     2
102
RTVSPropertyOp15
 70
     0
102
RTVSPropertyOp16
 70
     0
102
RTVSPropertyOp17
 70
     0
102
RTVSPropertyOp18
 70
     0
102
RTVSPropertyOp19
 70
     0
102
RTVSPropertyOp20
 70
     0
102
RTVSPropertyOp21
 70
     0
102
RTVSPropertyOp22
 70
     0
102
RTVSPropertyOp23
 70
     0
102
RTVSPropertyOp24
 70
     0
102
RTVSPropertyOp25
 70
     0
102
RTVSPropertyOp26
 70
     0
102
RTVSPropertyOp27
 70
     0
102
RTVSPropertyOp28
 70
     1
102
RTVSPropertyOp29
 70
     1
102
RTVSPropertyOp30
 70
     1
102
RTVSPropertyOp31
 70
     1
102
RTVSPropertyOp32
 70
     1
102
RTVSPropertyOp33
 70
     1
102
RTVSPropertyOp34
 70
     1
102
RTVSPropertyOp35
 70
     1
102
RTVSPropertyOp36
 70
     1
102
RTVSPropertyOp37
 70
     1
102
RTVSPropertyOp38
 70
     1
102
RTVSPropertyOp39
 70
     1
102
RTVSPropertyOp40
 70
     1
102
RTVSPropertyOp41
 70
     1
102
RTVSPropertyOp42
 70
     1
102
RTVSPropertyOp43
 70
     1
102
RTVSPropertyOp44
 70
     1
102
RTVSPropertyOp45
 70
     1
102
RTVSPropertyOp46
 70
     1
102
RTVSPropertyOp47
 70
     1
102
RTVSPropertyOp48
 70
     1
102
RTVSPropertyOp49
 70
     1
102
RTVSPropertyOp50
 70
     1
102
RTVSPropertyOp51
 70
     0
102
RTVSPropertyOp52
 70
     0
102
RTVSPropertyOp53
 70
     1
102
RTVSPropertyOp54
 70
     1
102
RTVSPropertyOp55
 70
     1
102
RTVSPropertyOp56
 70
     1
102
RTVSPropertyOp57
 70
     1
102
RTVSPropertyOp58
 70
     1
102
RTVSPropertyOp59
 70
     1
102
RTVSPropertyOp60
 70
     1
102
RTVSPropertyOp61
 70
     1
102
RTVSPropertyOp62
 70
     1
  0
XRECORD
  5
1BA07
102
{ACAD_REACTORS
330
1BA06
102
}
330
1BA06
100
AcDbXrecord
280
     1
102
RTVSPost2010Prop28
280
     0
102
RTVSPost2010PropOp28
 70
     1
102
RTVSPost2010Prop29
280
     1
102
RTVSPost2010PropOp29
 70
     1
102
RTVSPost2010Prop30
280
     1
102
RTVSPost2010PropOp30
 70
     1
102
RTVSPost2010Prop31
280
     0
102
RTVSPost2010PropOp31
 70
     1
102
RTVSPost2010Prop32
280
     0
102
RTVSPost2010PropOp32
 70
     1
102
RTVSPost2010Prop33
280
     0
102
RTVSPost2010PropOp33
 70
     1
102
RTVSPost2010Prop34
280
     0
102
RTVSPost2010PropOp34
 70
     1
102
RTVSPost2010Prop35
280
     0
102
RTVSPost2010PropOp35
 70
     1
102
RTVSPost2010Prop36
280
     0
102
RTVSPost2010PropOp36
 70
     1
102
RTVSPost2010Prop37
 90
       50
102
RTVSPost2010PropOp37
 70
     1
102
RTVSPost2010Prop38
140
0.0
102
RTVSPost2010PropOp38
 70
     1
102
RTVSPost2010Prop39
140
1.0
102
RTVSPost2010PropOp39
 70
     1
102
RTVSPost2010Prop40
 90
        0
102
RTVSPost2010PropOp40
 70
     1
102
RTVSPost2010Prop41ColorIndex
 90
       18
102
RTVSPost2010Prop41ColorRGB
 90
        0
102
RTVSPost2010PropOp41
 70
     1
102
RTVSPost2010Prop42
 90
       50
102
RTVSPost2010PropOp42
 70
     1
102
RTVSPost2010Prop43
 90
        3
102
RTVSPost2010PropOp43
 70
     1
102
RTVSPost2010Prop44ColorIndex
 90
        5
102
RTVSPost2010Prop44ColorRGB
 90
      255
102
RTVSPost2010PropOp44
 70
     1
102
RTVSPost2010Prop45
280
     0
102
RTVSPost2010PropOp45
 70
     1
102
RTVSPost2010Prop46
 90
       50
102
RTVSPost2010PropOp46
 70
     1
102
RTVSPost2010Prop47
 90
       50
102
RTVSPost2010PropOp47
 70
     1
102
RTVSPost2010Prop48
 90
       50
102
RTVSPost2010PropOp48
 70
     1
102
RTVSPost2010Prop49
280
     0
102
RTVSPost2010PropOp49
 70
     1
102
RTVSPost2010Prop50
 90
       50
102
RTVSPost2010PropOp50
 70
     1
102
RTVSPost2010Prop51ColorIndex
 90
      256
102
RTVSPost2010Prop51ColorRGB
 90
-16777216
102
RTVSPost2010PropOp51
 70
     0
102
RTVSPost2010Prop52
140
1.0
102
RTVSPost2010PropOp52
 70
     0
102
RTVSPost2010Prop53
 90
        2
102
RTVSPost2010PropOp53
 70
     1
102
RTVSPost2010Prop54
  1
strokes_ogs.tif
102
RTVSPost2010PropOp54
 70
     1
102
RTVSPost2010Prop55
280
     0
102
RTVSPost2010PropOp55
 70
     1
102
RTVSPost2010Prop56
140
1.0
102
RTVSPost2010PropOp56
 70
     1
102
RTVSPost2010Prop57
140
1.0
102
RTVSPost2010PropOp57
 70
     1
102
RTVSPropertyOp0
 70
     1
102
RTVSPropertyOp1
 70
     1
102
RTVSPropertyOp2
 70
     1
102
RTVSPropertyOp3
 70
     1
102
RTVSPropertyOp4
 70
     1
102
RTVSPropertyOp5
 70
     1
102
RTVSPropertyOp6
 70
     1
102
RTVSPropertyOp7
 70
     1
102
RTVSPropertyOp8
 70
     1
102
RTVSPropertyOp9
 70
     1
102
RTVSPropertyOp10
 70
     1
102
RTVSPropertyOp11
 70
     1
102
RTVSPropertyOp12
 70
     1
102
RTVSPropertyOp13
 70
     1
102
RTVSPropertyOp14
 70
     1
102
RTVSPropertyOp15
 70
     1
102
RTVSPropertyOp16
 70
     1
102
RTVSPropertyOp17
 70
     1
102
RTVSPropertyOp18
 70
     1
102
RTVSPropertyOp19
 70
     1
102
RTVSPropertyOp20
 70
     1
102
RTVSPropertyOp21
 70
     1
102
RTVSPropertyOp22
 70
     1
102
RTVSPropertyOp23
 70
     1
102
RTVSPropertyOp24
 70
     1
102
RTVSPropertyOp25
 70
     1
102
RTVSPropertyOp26
 70
     1
102
RTVSPropertyOp27
 70
     1
102
RTVSPropertyOp28
 70
     1
102
RTVSPropertyOp29
 70
     1
102
RTVSPropertyOp30
 70
     1
102
RTVSPropertyOp31
 70
     1
102
RTVSPropertyOp32
 70
     1
102
RTVSPropertyOp33
 70
     1
102
RTVSPropertyOp34
 70
     1
102
RTVSPropertyOp35
 70
     1
102
RTVSPropertyOp36
 70
     1
102
RTVSPropertyOp37
 70
     1
102
RTVSPropertyOp38
 70
     1
102
RTVSPropertyOp39
 70
     1
102
RTVSPropertyOp40
 70
     1
102
RTVSPropertyOp41
 70
     1
102
RTVSPropertyOp42
 70
     1
102
RTVSPropertyOp43
 70
     1
102
RTVSPropertyOp44
 70
     1
102
RTVSPropertyOp45
 70
     1
102
RTVSPropertyOp46
 70
     1
102
RTVSPropertyOp47
 70
     1
102
RTVSPropertyOp48
 70
     1
102
RTVSPropertyOp49
 70
     1
102
RTVSPropertyOp50
 70
     1
102
RTVSPropertyOp51
 70
     0
102
RTVSPropertyOp52
 70
     0
102
RTVSPropertyOp53
 70
     1
102
RTVSPropertyOp54
 70
     1
102
RTVSPropertyOp55
 70
     1
102
RTVSPropertyOp56
 70
     1
102
RTVSPropertyOp57
 70
     1
102
RTVSPropertyOp58
 70
     1
102
RTVSPropertyOp59
 70
     1
102
RTVSPropertyOp60
 70
     1
102
RTVSPropertyOp61
 70
     1
102
RTVSPropertyOp62
 70
     1
  0
XRECORD
  5
1B9EB
102
{ACAD_REACTORS
330
1B9EA
102
}
330
1B9EA
100
AcDbXrecord
280
     1
102
RTVSPost2010Prop28
280
     0
102
RTVSPost2010PropOp28
 70
     1
102
RTVSPost2010Prop29
280
     1
102
RTVSPost2010PropOp29
 70
     1
102
RTVSPost2010Prop30
280
     1
102
RTVSPost2010PropOp30
 70
     1
102
RTVSPost2010Prop31
280
     0
102
RTVSPost2010PropOp31
 70
     1
102
RTVSPost2010Prop32
280
     0
102
RTVSPost2010PropOp32
 70
     1
102
RTVSPost2010Prop33
280
     0
102
RTVSPost2010PropOp33
 70
     1
102
RTVSPost2010Prop34
280
     0
102
RTVSPost2010PropOp34
 70
     1
102
RTVSPost2010Prop35
280
     0
102
RTVSPost2010PropOp35
 70
     1
102
RTVSPost2010Prop36
280
     0
102
RTVSPost2010PropOp36
 70
     1
102
RTVSPost2010Prop37
 90
       50
102
RTVSPost2010PropOp37
 70
     1
102
RTVSPost2010Prop38
140
0.0
102
RTVSPost2010PropOp38
 70
     1
102
RTVSPost2010Prop39
140
1.0
102
RTVSPost2010PropOp39
 70
     1
102
RTVSPost2010Prop40
 90
        0
102
RTVSPost2010PropOp40
 70
     1
102
RTVSPost2010Prop41ColorIndex
 90
       18
102
RTVSPost2010Prop41ColorRGB
 90
        0
102
RTVSPost2010PropOp41
 70
     1
102
RTVSPost2010Prop42
 90
       50
102
RTVSPost2010PropOp42
 70
     1
102
RTVSPost2010Prop43
 90
        3
102
RTVSPost2010PropOp43
 70
     1
102
RTVSPost2010Prop44ColorIndex
 90
        5
102
RTVSPost2010Prop44ColorRGB
 90
      255
102
RTVSPost2010PropOp44
 70
     1
102
RTVSPost2010Prop45
280
     0
102
RTVSPost2010PropOp45
 70
     1
102
RTVSPost2010Prop46
 90
       50
102
RTVSPost2010PropOp46
 70
     1
102
RTVSPost2010Prop47
 90
       50
102
RTVSPost2010PropOp47
 70
     1
102
RTVSPost2010Prop48
 90
       50
102
RTVSPost2010PropOp48
 70
     1
102
RTVSPost2010Prop49
280
     0
102
RTVSPost2010PropOp49
 70
     1
102
RTVSPost2010Prop50
 90
       50
102
RTVSPost2010PropOp50
 70
     1
102
RTVSPost2010Prop51ColorIndex
 90
      256
102
RTVSPost2010Prop51ColorRGB
 90
-16777216
102
RTVSPost2010PropOp51
 70
     0
102
RTVSPost2010Prop52
140
1.0
102
RTVSPost2010PropOp52
 70
     0
102
RTVSPost2010Prop53
 90
        2
102
RTVSPost2010PropOp53
 70
     1
102
RTVSPost2010Prop54
  1
strokes_ogs.tif
102
RTVSPost2010PropOp54
 70
     1
102
RTVSPost2010Prop55
280
     0
102
RTVSPost2010PropOp55
 70
     1
102
RTVSPost2010Prop56
140
1.0
102
RTVSPost2010PropOp56
 70
     1
102
RTVSPost2010Prop57
140
1.0
102
RTVSPost2010PropOp57
 70
     1
102
RTVSPropertyOp0
 70
     1
102
RTVSPropertyOp1
 70
     1
102
RTVSPropertyOp2
 70
     1
102
RTVSPropertyOp3
 70
     1
102
RTVSPropertyOp4
 70
     1
102
RTVSPropertyOp5
 70
     1
102
RTVSPropertyOp6
 70
     1
102
RTVSPropertyOp7
 70
     1
102
RTVSPropertyOp8
 70
     1
102
RTVSPropertyOp9
 70
     1
102
RTVSPropertyOp10
 70
     1
102
RTVSPropertyOp11
 70
     1
102
RTVSPropertyOp12
 70
     1
102
RTVSPropertyOp13
 70
     1
102
RTVSPropertyOp14
 70
     1
102
RTVSPropertyOp15
 70
     1
102
RTVSPropertyOp16
 70
     1
102
RTVSPropertyOp17
 70
     1
102
RTVSPropertyOp18
 70
     1
102
RTVSPropertyOp19
 70
     1
102
RTVSPropertyOp20
 70
     1
102
RTVSPropertyOp21
 70
     1
102
RTVSPropertyOp22
 70
     1
102
RTVSPropertyOp23
 70
     1
102
RTVSPropertyOp24
 70
     1
102
RTVSPropertyOp25
 70
     1
102
RTVSPropertyOp26
 70
     1
102
RTVSPropertyOp27
 70
     1
102
RTVSPropertyOp28
 70
     1
102
RTVSPropertyOp29
 70
     1
102
RTVSPropertyOp30
 70
     1
102
RTVSPropertyOp31
 70
     1
102
RTVSPropertyOp32
 70
     1
102
RTVSPropertyOp33
 70
     1
102
RTVSPropertyOp34
 70
     1
102
RTVSPropertyOp35
 70
     1
102
RTVSPropertyOp36
 70
     1
102
RTVSPropertyOp37
 70
     1
102
RTVSPropertyOp38
 70
     1
102
RTVSPropertyOp39
 70
     1
102
RTVSPropertyOp40
 70
     1
102
RTVSPropertyOp41
 70
     1
102
RTVSPropertyOp42
 70
     1
102
RTVSPropertyOp43
 70
     1
102
RTVSPropertyOp44
 70
     1
102
RTVSPropertyOp45
 70
     1
102
RTVSPropertyOp46
 70
     1
102
RTVSPropertyOp47
 70
     1
102
RTVSPropertyOp48
 70
     1
102
RTVSPropertyOp49
 70
     1
102
RTVSPropertyOp50
 70
     1
102
RTVSPropertyOp51
 70
     0
102
RTVSPropertyOp52
 70
     0
102
RTVSPropertyOp53
 70
     1
102
RTVSPropertyOp54
 70
     1
102
RTVSPropertyOp55
 70
     1
102
RTVSPropertyOp56
 70
     1
102
RTVSPropertyOp57
 70
     1
102
RTVSPropertyOp58
 70
     1
102
RTVSPropertyOp59
 70
     1
102
RTVSPropertyOp60
 70
     1
102
RTVSPropertyOp61
 70
     1
102
RTVSPropertyOp62
 70
     1
  0
XRECORD
  5
1B9ED
102
{ACAD_REACTORS
330
1B9EC
102
}
330
1B9EC
100
AcDbXrecord
280
     1
102
RTVSPost2010Prop28
280
     0
102
RTVSPost2010PropOp28
 70
     1
102
RTVSPost2010Prop29
280
     1
102
RTVSPost2010PropOp29
 70
     1
102
RTVSPost2010Prop30
280
     1
102
RTVSPost2010PropOp30
 70
     1
102
RTVSPost2010Prop31
280
     0
102
RTVSPost2010PropOp31
 70
     1
102
RTVSPost2010Prop32
280
     0
102
RTVSPost2010PropOp32
 70
     1
102
RTVSPost2010Prop33
280
     0
102
RTVSPost2010PropOp33
 70
     1
102
RTVSPost2010Prop34
280
     0
102
RTVSPost2010PropOp34
 70
     1
102
RTVSPost2010Prop35
280
     0
102
RTVSPost2010PropOp35
 70
     1
102
RTVSPost2010Prop36
280
     0
102
RTVSPost2010PropOp36
 70
     1
102
RTVSPost2010Prop37
 90
       50
102
RTVSPost2010PropOp37
 70
     1
102
RTVSPost2010Prop38
140
0.0
102
RTVSPost2010PropOp38
 70
     1
102
RTVSPost2010Prop39
140
1.0
102
RTVSPost2010PropOp39
 70
     1
102
RTVSPost2010Prop40
 90
        0
102
RTVSPost2010PropOp40
 70
     1
102
RTVSPost2010Prop41ColorIndex
 90
       18
102
RTVSPost2010Prop41ColorRGB
 90
        0
102
RTVSPost2010PropOp41
 70
     1
102
RTVSPost2010Prop42
 90
       50
102
RTVSPost2010PropOp42
 70
     1
102
RTVSPost2010Prop43
 90
        3
102
RTVSPost2010PropOp43
 70
     1
102
RTVSPost2010Prop44ColorIndex
 90
        5
102
RTVSPost2010Prop44ColorRGB
 90
      255
102
RTVSPost2010PropOp44
 70
     1
102
RTVSPost2010Prop45
280
     0
102
RTVSPost2010PropOp45
 70
     1
102
RTVSPost2010Prop46
 90
       50
102
RTVSPost2010PropOp46
 70
     1
102
RTVSPost2010Prop47
 90
       50
102
RTVSPost2010PropOp47
 70
     1
102
RTVSPost2010Prop48
 90
       50
102
RTVSPost2010PropOp48
 70
     1
102
RTVSPost2010Prop49
280
     0
102
RTVSPost2010PropOp49
 70
     1
102
RTVSPost2010Prop50
 90
       50
102
RTVSPost2010PropOp50
 70
     1
102
RTVSPost2010Prop51ColorIndex
 90
      256
102
RTVSPost2010Prop51ColorRGB
 90
-16777216
102
RTVSPost2010PropOp51
 70
     0
102
RTVSPost2010Prop52
140
1.0
102
RTVSPost2010PropOp52
 70
     0
102
RTVSPost2010Prop53
 90
        2
102
RTVSPost2010PropOp53
 70
     1
102
RTVSPost2010Prop54
  1
strokes_ogs.tif
102
RTVSPost2010PropOp54
 70
     1
102
RTVSPost2010Prop55
280
     0
102
RTVSPost2010PropOp55
 70
     1
102
RTVSPost2010Prop56
140
1.0
102
RTVSPost2010PropOp56
 70
     1
102
RTVSPost2010Prop57
140
1.0
102
RTVSPost2010PropOp57
 70
     1
102
RTVSPropertyOp0
 70
     1
102
RTVSPropertyOp1
 70
     1
102
RTVSPropertyOp2
 70
     1
102
RTVSPropertyOp3
 70
     1
102
RTVSPropertyOp4
 70
     1
102
RTVSPropertyOp5
 70
     1
102
RTVSPropertyOp6
 70
     1
102
RTVSPropertyOp7
 70
     1
102
RTVSPropertyOp8
 70
     1
102
RTVSPropertyOp9
 70
     1
102
RTVSPropertyOp10
 70
     1
102
RTVSPropertyOp11
 70
     1
102
RTVSPropertyOp12
 70
     1
102
RTVSPropertyOp13
 70
     1
102
RTVSPropertyOp14
 70
     1
102
RTVSPropertyOp15
 70
     1
102
RTVSPropertyOp16
 70
     1
102
RTVSPropertyOp17
 70
     1
102
RTVSPropertyOp18
 70
     1
102
RTVSPropertyOp19
 70
     1
102
RTVSPropertyOp20
 70
     1
102
RTVSPropertyOp21
 70
     1
102
RTVSPropertyOp22
 70
     1
102
RTVSPropertyOp23
 70
     1
102
RTVSPropertyOp24
 70
     1
102
RTVSPropertyOp25
 70
     1
102
RTVSPropertyOp26
 70
     1
102
RTVSPropertyOp27
 70
     1
102
RTVSPropertyOp28
 70
     1
102
RTVSPropertyOp29
 70
     1
102
RTVSPropertyOp30
 70
     1
102
RTVSPropertyOp31
 70
     1
102
RTVSPropertyOp32
 70
     1
102
RTVSPropertyOp33
 70
     1
102
RTVSPropertyOp34
 70
     1
102
RTVSPropertyOp35
 70
     1
102
RTVSPropertyOp36
 70
     1
102
RTVSPropertyOp37
 70
     1
102
RTVSPropertyOp38
 70
     1
102
RTVSPropertyOp39
 70
     1
102
RTVSPropertyOp40
 70
     1
102
RTVSPropertyOp41
 70
     1
102
RTVSPropertyOp42
 70
     1
102
RTVSPropertyOp43
 70
     1
102
RTVSPropertyOp44
 70
     1
102
RTVSPropertyOp45
 70
     1
102
RTVSPropertyOp46
 70
     1
102
RTVSPropertyOp47
 70
     1
102
RTVSPropertyOp48
 70
     1
102
RTVSPropertyOp49
 70
     1
102
RTVSPropertyOp50
 70
     1
102
RTVSPropertyOp51
 70
     0
102
RTVSPropertyOp52
 70
     0
102
RTVSPropertyOp53
 70
     1
102
RTVSPropertyOp54
 70
     1
102
RTVSPropertyOp55
 70
     1
102
RTVSPropertyOp56
 70
     1
102
RTVSPropertyOp57
 70
     1
102
RTVSPropertyOp58
 70
     1
102
RTVSPropertyOp59
 70
     1
102
RTVSPropertyOp60
 70
     1
102
RTVSPropertyOp61
 70
     1
102
RTVSPropertyOp62
 70
     1
  0
XRECORD
  5
1B9EF
102
{ACAD_REACTORS
330
1B9EE
102
}
330
1B9EE
100
AcDbXrecord
280
     1
102
RTVSPost2010Prop28
280
     0
102
RTVSPost2010PropOp28
 70
     1
102
RTVSPost2010Prop29
280
     1
102
RTVSPost2010PropOp29
 70
     1
102
RTVSPost2010Prop30
280
     1
102
RTVSPost2010PropOp30
 70
     1
102
RTVSPost2010Prop31
280
     0
102
RTVSPost2010PropOp31
 70
     1
102
RTVSPost2010Prop32
280
     0
102
RTVSPost2010PropOp32
 70
     1
102
RTVSPost2010Prop33
280
     0
102
RTVSPost2010PropOp33
 70
     1
102
RTVSPost2010Prop34
280
     0
102
RTVSPost2010PropOp34
 70
     1
102
RTVSPost2010Prop35
280
     0
102
RTVSPost2010PropOp35
 70
     1
102
RTVSPost2010Prop36
280
     0
102
RTVSPost2010PropOp36
 70
     1
102
RTVSPost2010Prop37
 90
       50
102
RTVSPost2010PropOp37
 70
     1
102
RTVSPost2010Prop38
140
0.0
102
RTVSPost2010PropOp38
 70
     1
102
RTVSPost2010Prop39
140
1.0
102
RTVSPost2010PropOp39
 70
     1
102
RTVSPost2010Prop40
 90
        0
102
RTVSPost2010PropOp40
 70
     1
102
RTVSPost2010Prop41ColorIndex
 90
       18
102
RTVSPost2010Prop41ColorRGB
 90
        0
102
RTVSPost2010PropOp41
 70
     1
102
RTVSPost2010Prop42
 90
       50
102
RTVSPost2010PropOp42
 70
     1
102
RTVSPost2010Prop43
 90
        3
102
RTVSPost2010PropOp43
 70
     1
102
RTVSPost2010Prop44ColorIndex
 90
        5
102
RTVSPost2010Prop44ColorRGB
 90
      255
102
RTVSPost2010PropOp44
 70
     1
102
RTVSPost2010Prop45
280
     0
102
RTVSPost2010PropOp45
 70
     1
102
RTVSPost2010Prop46
 90
       50
102
RTVSPost2010PropOp46
 70
     1
102
RTVSPost2010Prop47
 90
       50
102
RTVSPost2010PropOp47
 70
     1
102
RTVSPost2010Prop48
 90
       50
102
RTVSPost2010PropOp48
 70
     1
102
RTVSPost2010Prop49
280
     0
102
RTVSPost2010PropOp49
 70
     1
102
RTVSPost2010Prop50
 90
       50
102
RTVSPost2010PropOp50
 70
     1
102
RTVSPost2010Prop51ColorIndex
 90
      256
102
RTVSPost2010Prop51ColorRGB
 90
-16777216
102
RTVSPost2010PropOp51
 70
     0
102
RTVSPost2010Prop52
140
1.0
102
RTVSPost2010PropOp52
 70
     0
102
RTVSPost2010Prop53
 90
        2
102
RTVSPost2010PropOp53
 70
     1
102
RTVSPost2010Prop54
  1
strokes_ogs.tif
102
RTVSPost2010PropOp54
 70
     1
102
RTVSPost2010Prop55
280
     0
102
RTVSPost2010PropOp55
 70
     1
102
RTVSPost2010Prop56
140
1.0
102
RTVSPost2010PropOp56
 70
     1
102
RTVSPost2010Prop57
140
1.0
102
RTVSPost2010PropOp57
 70
     1
102
RTVSPropertyOp0
 70
     1
102
RTVSPropertyOp1
 70
     1
102
RTVSPropertyOp2
 70
     1
102
RTVSPropertyOp3
 70
     1
102
RTVSPropertyOp4
 70
     1
102
RTVSPropertyOp5
 70
     1
102
RTVSPropertyOp6
 70
     1
102
RTVSPropertyOp7
 70
     1
102
RTVSPropertyOp8
 70
     1
102
RTVSPropertyOp9
 70
     1
102
RTVSPropertyOp10
 70
     1
102
RTVSPropertyOp11
 70
     1
102
RTVSPropertyOp12
 70
     1
102
RTVSPropertyOp13
 70
     1
102
RTVSPropertyOp14
 70
     1
102
RTVSPropertyOp15
 70
     1
102
RTVSPropertyOp16
 70
     1
102
RTVSPropertyOp17
 70
     1
102
RTVSPropertyOp18
 70
     1
102
RTVSPropertyOp19
 70
     1
102
RTVSPropertyOp20
 70
     1
102
RTVSPropertyOp21
 70
     1
102
RTVSPropertyOp22
 70
     1
102
RTVSPropertyOp23
 70
     1
102
RTVSPropertyOp24
 70
     1
102
RTVSPropertyOp25
 70
     1
102
RTVSPropertyOp26
 70
     1
102
RTVSPropertyOp27
 70
     1
102
RTVSPropertyOp28
 70
     1
102
RTVSPropertyOp29
 70
     1
102
RTVSPropertyOp30
 70
     1
102
RTVSPropertyOp31
 70
     1
102
RTVSPropertyOp32
 70
     1
102
RTVSPropertyOp33
 70
     1
102
RTVSPropertyOp34
 70
     1
102
RTVSPropertyOp35
 70
     1
102
RTVSPropertyOp36
 70
     1
102
RTVSPropertyOp37
 70
     1
102
RTVSPropertyOp38
 70
     1
102
RTVSPropertyOp39
 70
     1
102
RTVSPropertyOp40
 70
     1
102
RTVSPropertyOp41
 70
     1
102
RTVSPropertyOp42
 70
     1
102
RTVSPropertyOp43
 70
     1
102
RTVSPropertyOp44
 70
     1
102
RTVSPropertyOp45
 70
     1
102
RTVSPropertyOp46
 70
     1
102
RTVSPropertyOp47
 70
     1
102
RTVSPropertyOp48
 70
     1
102
RTVSPropertyOp49
 70
     1
102
RTVSPropertyOp50
 70
     1
102
RTVSPropertyOp51
 70
     0
102
RTVSPropertyOp52
 70
     0
102
RTVSPropertyOp53
 70
     1
102
RTVSPropertyOp54
 70
     1
102
RTVSPropertyOp55
 70
     1
102
RTVSPropertyOp56
 70
     1
102
RTVSPropertyOp57
 70
     1
102
RTVSPropertyOp58
 70
     1
102
RTVSPropertyOp59
 70
     1
102
RTVSPropertyOp60
 70
     1
102
RTVSPropertyOp61
 70
     1
102
RTVSPropertyOp62
 70
     1
  0
XRECORD
  5
1B9F1
102
{ACAD_REACTORS
330
1B9F0
102
}
330
1B9F0
100
AcDbXrecord
280
     1
102
RTVSPost2010Prop28
280
     0
102
RTVSPost2010PropOp28
 70
     1
102
RTVSPost2010Prop29
280
     1
102
RTVSPost2010PropOp29
 70
     1
102
RTVSPost2010Prop30
280
     1
102
RTVSPost2010PropOp30
 70
     1
102
RTVSPost2010Prop31
280
     0
102
RTVSPost2010PropOp31
 70
     1
102
RTVSPost2010Prop32
280
     0
102
RTVSPost2010PropOp32
 70
     1
102
RTVSPost2010Prop33
280
     0
102
RTVSPost2010PropOp33
 70
     1
102
RTVSPost2010Prop34
280
     0
102
RTVSPost2010PropOp34
 70
     1
102
RTVSPost2010Prop35
280
     0
102
RTVSPost2010PropOp35
 70
     1
102
RTVSPost2010Prop36
280
     0
102
RTVSPost2010PropOp36
 70
     1
102
RTVSPost2010Prop37
 90
       50
102
RTVSPost2010PropOp37
 70
     1
102
RTVSPost2010Prop38
140
0.0
102
RTVSPost2010PropOp38
 70
     1
102
RTVSPost2010Prop39
140
1.0
102
RTVSPost2010PropOp39
 70
     1
102
RTVSPost2010Prop40
 90
        0
102
RTVSPost2010PropOp40
 70
     1
102
RTVSPost2010Prop41ColorIndex
 90
       18
102
RTVSPost2010Prop41ColorRGB
 90
        0
102
RTVSPost2010PropOp41
 70
     1
102
RTVSPost2010Prop42
 90
       50
102
RTVSPost2010PropOp42
 70
     1
102
RTVSPost2010Prop43
 90
        3
102
RTVSPost2010PropOp43
 70
     1
102
RTVSPost2010Prop44ColorIndex
 90
        5
102
RTVSPost2010Prop44ColorRGB
 90
      255
102
RTVSPost2010PropOp44
 70
     1
102
RTVSPost2010Prop45
280
     0
102
RTVSPost2010PropOp45
 70
     1
102
RTVSPost2010Prop46
 90
       50
102
RTVSPost2010PropOp46
 70
     1
102
RTVSPost2010Prop47
 90
       50
102
RTVSPost2010PropOp47
 70
     1
102
RTVSPost2010Prop48
 90
       50
102
RTVSPost2010PropOp48
 70
     1
102
RTVSPost2010Prop49
280
     0
102
RTVSPost2010PropOp49
 70
     1
102
RTVSPost2010Prop50
 90
       50
102
RTVSPost2010PropOp50
 70
     1
102
RTVSPost2010Prop51ColorIndex
 90
      256
102
RTVSPost2010Prop51ColorRGB
 90
-16777216
102
RTVSPost2010PropOp51
 70
     0
102
RTVSPost2010Prop52
140
1.0
102
RTVSPost2010PropOp52
 70
     0
102
RTVSPost2010Prop53
 90
        2
102
RTVSPost2010PropOp53
 70
     1
102
RTVSPost2010Prop54
  1
strokes_ogs.tif
102
RTVSPost2010PropOp54
 70
     1
102
RTVSPost2010Prop55
280
     0
102
RTVSPost2010PropOp55
 70
     1
102
RTVSPost2010Prop56
140
1.0
102
RTVSPost2010PropOp56
 70
     1
102
RTVSPost2010Prop57
140
1.0
102
RTVSPost2010PropOp57
 70
     1
102
RTVSPropertyOp0
 70
     1
102
RTVSPropertyOp1
 70
     1
102
RTVSPropertyOp2
 70
     1
102
RTVSPropertyOp3
 70
     1
102
RTVSPropertyOp4
 70
     1
102
RTVSPropertyOp5
 70
     1
102
RTVSPropertyOp6
 70
     1
102
RTVSPropertyOp7
 70
     1
102
RTVSPropertyOp8
 70
     1
102
RTVSPropertyOp9
 70
     1
102
RTVSPropertyOp10
 70
     1
102
RTVSPropertyOp11
 70
     1
102
RTVSPropertyOp12
 70
     1
102
RTVSPropertyOp13
 70
     1
102
RTVSPropertyOp14
 70
     1
102
RTVSPropertyOp15
 70
     1
102
RTVSPropertyOp16
 70
     1
102
RTVSPropertyOp17
 70
     1
102
RTVSPropertyOp18
 70
     1
102
RTVSPropertyOp19
 70
     1
102
RTVSPropertyOp20
 70
     1
102
RTVSPropertyOp21
 70
     1
102
RTVSPropertyOp22
 70
     1
102
RTVSPropertyOp23
 70
     1
102
RTVSPropertyOp24
 70
     1
102
RTVSPropertyOp25
 70
     1
102
RTVSPropertyOp26
 70
     1
102
RTVSPropertyOp27
 70
     1
102
RTVSPropertyOp28
 70
     1
102
RTVSPropertyOp29
 70
     1
102
RTVSPropertyOp30
 70
     1
102
RTVSPropertyOp31
 70
     1
102
RTVSPropertyOp32
 70
     1
102
RTVSPropertyOp33
 70
     1
102
RTVSPropertyOp34
 70
     1
102
RTVSPropertyOp35
 70
     1
102
RTVSPropertyOp36
 70
     1
102
RTVSPropertyOp37
 70
     1
102
RTVSPropertyOp38
 70
     1
102
RTVSPropertyOp39
 70
     1
102
RTVSPropertyOp40
 70
     1
102
RTVSPropertyOp41
 70
     1
102
RTVSPropertyOp42
 70
     1
102
RTVSPropertyOp43
 70
     1
102
RTVSPropertyOp44
 70
     1
102
RTVSPropertyOp45
 70
     1
102
RTVSPropertyOp46
 70
     1
102
RTVSPropertyOp47
 70
     1
102
RTVSPropertyOp48
 70
     1
102
RTVSPropertyOp49
 70
     1
102
RTVSPropertyOp50
 70
     1
102
RTVSPropertyOp51
 70
     0
102
RTVSPropertyOp52
 70
     0
102
RTVSPropertyOp53
 70
     1
102
RTVSPropertyOp54
 70
     1
102
RTVSPropertyOp55
 70
     1
102
RTVSPropertyOp56
 70
     1
102
RTVSPropertyOp57
 70
     1
102
RTVSPropertyOp58
 70
     1
102
RTVSPropertyOp59
 70
     1
102
RTVSPropertyOp60
 70
     1
102
RTVSPropertyOp61
 70
     1
102
RTVSPropertyOp62
 70
     1
  0
XRECORD
  5
1B9F9
102
{ACAD_REACTORS
330
1B9F8
102
}
330
1B9F8
100
AcDbXrecord
280
     1
102
RTVSPost2010Prop28
280
     0
102
RTVSPost2010PropOp28
 70
     1
102
RTVSPost2010Prop29
280
     1
102
RTVSPost2010PropOp29
 70
     1
102
RTVSPost2010Prop30
280
     1
102
RTVSPost2010PropOp30
 70
     1
102
RTVSPost2010Prop31
280
     0
102
RTVSPost2010PropOp31
 70
     1
102
RTVSPost2010Prop32
280
     0
102
RTVSPost2010PropOp32
 70
     1
102
RTVSPost2010Prop33
280
     0
102
RTVSPost2010PropOp33
 70
     1
102
RTVSPost2010Prop34
280
     0
102
RTVSPost2010PropOp34
 70
     1
102
RTVSPost2010Prop35
280
     0
102
RTVSPost2010PropOp35
 70
     1
102
RTVSPost2010Prop36
280
     0
102
RTVSPost2010PropOp36
 70
     1
102
RTVSPost2010Prop37
 90
       50
102
RTVSPost2010PropOp37
 70
     1
102
RTVSPost2010Prop38
140
0.0
102
RTVSPost2010PropOp38
 70
     1
102
RTVSPost2010Prop39
140
1.0
102
RTVSPost2010PropOp39
 70
     1
102
RTVSPost2010Prop40
 90
        0
102
RTVSPost2010PropOp40
 70
     1
102
RTVSPost2010Prop41ColorIndex
 90
       18
102
RTVSPost2010Prop41ColorRGB
 90
        0
102
RTVSPost2010PropOp41
 70
     1
102
RTVSPost2010Prop42
 90
       50
102
RTVSPost2010PropOp42
 70
     1
102
RTVSPost2010Prop43
 90
        3
102
RTVSPost2010PropOp43
 70
     1
102
RTVSPost2010Prop44ColorIndex
 90
        5
102
RTVSPost2010Prop44ColorRGB
 90
      255
102
RTVSPost2010PropOp44
 70
     1
102
RTVSPost2010Prop45
280
     0
102
RTVSPost2010PropOp45
 70
     1
102
RTVSPost2010Prop46
 90
       50
102
RTVSPost2010PropOp46
 70
     1
102
RTVSPost2010Prop47
 90
       50
102
RTVSPost2010PropOp47
 70
     1
102
RTVSPost2010Prop48
 90
       50
102
RTVSPost2010PropOp48
 70
     1
102
RTVSPost2010Prop49
280
     0
102
RTVSPost2010PropOp49
 70
     1
102
RTVSPost2010Prop50
 90
       50
102
RTVSPost2010PropOp50
 70
     1
102
RTVSPost2010Prop51ColorIndex
 90
      256
102
RTVSPost2010Prop51ColorRGB
 90
-16777216
102
RTVSPost2010PropOp51
 70
     0
102
RTVSPost2010Prop52
140
1.0
102
RTVSPost2010PropOp52
 70
     0
102
RTVSPost2010Prop53
 90
        2
102
RTVSPost2010PropOp53
 70
     1
102
RTVSPost2010Prop54
  1
strokes_ogs.tif
102
RTVSPost2010PropOp54
 70
     1
102
RTVSPost2010Prop55
280
     0
102
RTVSPost2010PropOp55
 70
     1
102
RTVSPost2010Prop56
140
1.0
102
RTVSPost2010PropOp56
 70
     1
102
RTVSPost2010Prop57
140
1.0
102
RTVSPost2010PropOp57
 70
     1
102
RTVSPropertyOp0
 70
     1
102
RTVSPropertyOp1
 70
     1
102
RTVSPropertyOp2
 70
     1
102
RTVSPropertyOp3
 70
     1
102
RTVSPropertyOp4
 70
     1
102
RTVSPropertyOp5
 70
     1
102
RTVSPropertyOp6
 70
     1
102
RTVSPropertyOp7
 70
     1
102
RTVSPropertyOp8
 70
     1
102
RTVSPropertyOp9
 70
     1
102
RTVSPropertyOp10
 70
     1
102
RTVSPropertyOp11
 70
     1
102
RTVSPropertyOp12
 70
     1
102
RTVSPropertyOp13
 70
     1
102
RTVSPropertyOp14
 70
     1
102
RTVSPropertyOp15
 70
     1
102
RTVSPropertyOp16
 70
     1
102
RTVSPropertyOp17
 70
     1
102
RTVSPropertyOp18
 70
     1
102
RTVSPropertyOp19
 70
     1
102
RTVSPropertyOp20
 70
     1
102
RTVSPropertyOp21
 70
     1
102
RTVSPropertyOp22
 70
     1
102
RTVSPropertyOp23
 70
     1
102
RTVSPropertyOp24
 70
     1
102
RTVSPropertyOp25
 70
     1
102
RTVSPropertyOp26
 70
     1
102
RTVSPropertyOp27
 70
     1
102
RTVSPropertyOp28
 70
     1
102
RTVSPropertyOp29
 70
     1
102
RTVSPropertyOp30
 70
     1
102
RTVSPropertyOp31
 70
     1
102
RTVSPropertyOp32
 70
     1
102
RTVSPropertyOp33
 70
     1
102
RTVSPropertyOp34
 70
     1
102
RTVSPropertyOp35
 70
     1
102
RTVSPropertyOp36
 70
     1
102
RTVSPropertyOp37
 70
     1
102
RTVSPropertyOp38
 70
     1
102
RTVSPropertyOp39
 70
     1
102
RTVSPropertyOp40
 70
     1
102
RTVSPropertyOp41
 70
     1
102
RTVSPropertyOp42
 70
     1
102
RTVSPropertyOp43
 70
     1
102
RTVSPropertyOp44
 70
     1
102
RTVSPropertyOp45
 70
     1
102
RTVSPropertyOp46
 70
     1
102
RTVSPropertyOp47
 70
     1
102
RTVSPropertyOp48
 70
     1
102
RTVSPropertyOp49
 70
     1
102
RTVSPropertyOp50
 70
     1
102
RTVSPropertyOp51
 70
     0
102
RTVSPropertyOp52
 70
     0
102
RTVSPropertyOp53
 70
     1
102
RTVSPropertyOp54
 70
     1
102
RTVSPropertyOp55
 70
     1
102
RTVSPropertyOp56
 70
     1
102
RTVSPropertyOp57
 70
     1
102
RTVSPropertyOp58
 70
     1
102
RTVSPropertyOp59
 70
     1
102
RTVSPropertyOp60
 70
     1
102
RTVSPropertyOp61
 70
     1
102
RTVSPropertyOp62
 70
     1
  0
XRECORD
  5
1BA0D
102
{ACAD_REACTORS
330
1BA0C
102
}
330
1BA0C
100
AcDbXrecord
280
     1
102
RTVSPost2010Prop28
280
     0
102
RTVSPost2010PropOp28
 70
     1
102
RTVSPost2010Prop29
280
     1
102
RTVSPost2010PropOp29
 70
     1
102
RTVSPost2010Prop30
280
     1
102
RTVSPost2010PropOp30
 70
     1
102
RTVSPost2010Prop31
280
     0
102
RTVSPost2010PropOp31
 70
     1
102
RTVSPost2010Prop32
280
     0
102
RTVSPost2010PropOp32
 70
     1
102
RTVSPost2010Prop33
280
     0
102
RTVSPost2010PropOp33
 70
     1
102
RTVSPost2010Prop34
280
     0
102
RTVSPost2010PropOp34
 70
     1
102
RTVSPost2010Prop35
280
     0
102
RTVSPost2010PropOp35
 70
     1
102
RTVSPost2010Prop36
280
     0
102
RTVSPost2010PropOp36
 70
     1
102
RTVSPost2010Prop37
 90
       50
102
RTVSPost2010PropOp37
 70
     1
102
RTVSPost2010Prop38
140
0.0
102
RTVSPost2010PropOp38
 70
     1
102
RTVSPost2010Prop39
140
1.0
102
RTVSPost2010PropOp39
 70
     1
102
RTVSPost2010Prop40
 90
        0
102
RTVSPost2010PropOp40
 70
     1
102
RTVSPost2010Prop41ColorIndex
 90
       18
102
RTVSPost2010Prop41ColorRGB
 90
        0
102
RTVSPost2010PropOp41
 70
     1
102
RTVSPost2010Prop42
 90
       50
102
RTVSPost2010PropOp42
 70
     1
102
RTVSPost2010Prop43
 90
        3
102
RTVSPost2010PropOp43
 70
     1
102
RTVSPost2010Prop44ColorIndex
 90
        5
102
RTVSPost2010Prop44ColorRGB
 90
      255
102
RTVSPost2010PropOp44
 70
     1
102
RTVSPost2010Prop45
280
     0
102
RTVSPost2010PropOp45
 70
     1
102
RTVSPost2010Prop46
 90
       50
102
RTVSPost2010PropOp46
 70
     1
102
RTVSPost2010Prop47
 90
       50
102
RTVSPost2010PropOp47
 70
     1
102
RTVSPost2010Prop48
 90
       50
102
RTVSPost2010PropOp48
 70
     1
102
RTVSPost2010Prop49
280
     0
102
RTVSPost2010PropOp49
 70
     1
102
RTVSPost2010Prop50
 90
       50
102
RTVSPost2010PropOp50
 70
     1
102
RTVSPost2010Prop51ColorIndex
 90
      256
102
RTVSPost2010Prop51ColorRGB
 90
-16777216
102
RTVSPost2010PropOp51
 70
     0
102
RTVSPost2010Prop52
140
1.0
102
RTVSPost2010PropOp52
 70
     0
102
RTVSPost2010Prop53
 90
        2
102
RTVSPost2010PropOp53
 70
     1
102
RTVSPost2010Prop54
  1
strokes_ogs.tif
102
RTVSPost2010PropOp54
 70
     1
102
RTVSPost2010Prop55
280
     0
102
RTVSPost2010PropOp55
 70
     1
102
RTVSPost2010Prop56
140
1.0
102
RTVSPost2010PropOp56
 70
     1
102
RTVSPost2010Prop57
140
1.0
102
RTVSPost2010PropOp57
 70
     1
102
RTVSPropertyOp0
 70
     0
102
RTVSPropertyOp1
 70
     0
102
RTVSPropertyOp2
 70
     0
102
RTVSPropertyOp3
 70
     0
102
RTVSPropertyOp4
 70
     0
102
RTVSPropertyOp5
 70
     0
102
RTVSPropertyOp6
 70
     0
102
RTVSPropertyOp7
 70
     0
102
RTVSPropertyOp8
 70
     0
102
RTVSPropertyOp9
 70
     0
102
RTVSPropertyOp10
 70
     0
102
RTVSPropertyOp11
 70
     0
102
RTVSPropertyOp12
 70
     0
102
RTVSPropertyOp13
 70
     0
102
RTVSPropertyOp14
 70
     2
102
RTVSPropertyOp15
 70
     0
102
RTVSPropertyOp16
 70
     0
102
RTVSPropertyOp17
 70
     0
102
RTVSPropertyOp18
 70
     0
102
RTVSPropertyOp19
 70
     0
102
RTVSPropertyOp20
 70
     0
102
RTVSPropertyOp21
 70
     0
102
RTVSPropertyOp22
 70
     0
102
RTVSPropertyOp23
 70
     0
102
RTVSPropertyOp24
 70
     0
102
RTVSPropertyOp25
 70
     0
102
RTVSPropertyOp26
 70
     0
102
RTVSPropertyOp27
 70
     0
102
RTVSPropertyOp28
 70
     1
102
RTVSPropertyOp29
 70
     1
102
RTVSPropertyOp30
 70
     1
102
RTVSPropertyOp31
 70
     1
102
RTVSPropertyOp32
 70
     1
102
RTVSPropertyOp33
 70
     1
102
RTVSPropertyOp34
 70
     1
102
RTVSPropertyOp35
 70
     1
102
RTVSPropertyOp36
 70
     1
102
RTVSPropertyOp37
 70
     1
102
RTVSPropertyOp38
 70
     1
102
RTVSPropertyOp39
 70
     1
102
RTVSPropertyOp40
 70
     1
102
RTVSPropertyOp41
 70
     1
102
RTVSPropertyOp42
 70
     1
102
RTVSPropertyOp43
 70
     1
102
RTVSPropertyOp44
 70
     1
102
RTVSPropertyOp45
 70
     1
102
RTVSPropertyOp46
 70
     1
102
RTVSPropertyOp47
 70
     1
102
RTVSPropertyOp48
 70
     1
102
RTVSPropertyOp49
 70
     1
102
RTVSPropertyOp50
 70
     1
102
RTVSPropertyOp51
 70
     0
102
RTVSPropertyOp52
 70
     0
102
RTVSPropertyOp53
 70
     1
102
RTVSPropertyOp54
 70
     1
102
RTVSPropertyOp55
 70
     1
102
RTVSPropertyOp56
 70
     1
102
RTVSPropertyOp57
 70
     1
102
RTVSPropertyOp58
 70
     1
102
RTVSPropertyOp59
 70
     1
102
RTVSPropertyOp60
 70
     1
102
RTVSPropertyOp61
 70
     1
102
RTVSPropertyOp62
 70
     1
  0
XRECORD
  5
1BA05
102
{ACAD_REACTORS
330
1BA04
102
}
330
1BA04
100
AcDbXrecord
280
     1
102
RTVSPost2010Prop28
280
     0
102
RTVSPost2010PropOp28
 70
     1
102
RTVSPost2010Prop29
280
     1
102
RTVSPost2010PropOp29
 70
     1
102
RTVSPost2010Prop30
280
     1
102
RTVSPost2010PropOp30
 70
     1
102
RTVSPost2010Prop31
280
     0
102
RTVSPost2010PropOp31
 70
     1
102
RTVSPost2010Prop32
280
     0
102
RTVSPost2010PropOp32
 70
     1
102
RTVSPost2010Prop33
280
     0
102
RTVSPost2010PropOp33
 70
     1
102
RTVSPost2010Prop34
280
     0
102
RTVSPost2010PropOp34
 70
     1
102
RTVSPost2010Prop35
280
     0
102
RTVSPost2010PropOp35
 70
     1
102
RTVSPost2010Prop36
280
     0
102
RTVSPost2010PropOp36
 70
     1
102
RTVSPost2010Prop37
 90
       50
102
RTVSPost2010PropOp37
 70
     1
102
RTVSPost2010Prop38
140
0.0
102
RTVSPost2010PropOp38
 70
     1
102
RTVSPost2010Prop39
140
1.0
102
RTVSPost2010PropOp39
 70
     1
102
RTVSPost2010Prop40
 90
        0
102
RTVSPost2010PropOp40
 70
     1
102
RTVSPost2010Prop41ColorIndex
 90
       18
102
RTVSPost2010Prop41ColorRGB
 90
        0
102
RTVSPost2010PropOp41
 70
     1
102
RTVSPost2010Prop42
 90
       50
102
RTVSPost2010PropOp42
 70
     1
102
RTVSPost2010Prop43
 90
        3
102
RTVSPost2010PropOp43
 70
     1
102
RTVSPost2010Prop44ColorIndex
 90
        5
102
RTVSPost2010Prop44ColorRGB
 90
      255
102
RTVSPost2010PropOp44
 70
     1
102
RTVSPost2010Prop45
280
     0
102
RTVSPost2010PropOp45
 70
     1
102
RTVSPost2010Prop46
 90
       50
102
RTVSPost2010PropOp46
 70
     1
102
RTVSPost2010Prop47
 90
       50
102
RTVSPost2010PropOp47
 70
     1
102
RTVSPost2010Prop48
 90
       50
102
RTVSPost2010PropOp48
 70
     1
102
RTVSPost2010Prop49
280
     0
102
RTVSPost2010PropOp49
 70
     1
102
RTVSPost2010Prop50
 90
       50
102
RTVSPost2010PropOp50
 70
     1
102
RTVSPost2010Prop51ColorIndex
 90
      256
102
RTVSPost2010Prop51ColorRGB
 90
-16777216
102
RTVSPost2010PropOp51
 70
     0
102
RTVSPost2010Prop52
140
1.0
102
RTVSPost2010PropOp52
 70
     0
102
RTVSPost2010Prop53
 90
        2
102
RTVSPost2010PropOp53
 70
     1
102
RTVSPost2010Prop54
  1
strokes_ogs.tif
102
RTVSPost2010PropOp54
 70
     1
102
RTVSPost2010Prop55
280
     0
102
RTVSPost2010PropOp55
 70
     1
102
RTVSPost2010Prop56
140
1.0
102
RTVSPost2010PropOp56
 70
     1
102
RTVSPost2010Prop57
140
1.0
102
RTVSPost2010PropOp57
 70
     1
102
RTVSPropertyOp0
 70
     1
102
RTVSPropertyOp1
 70
     1
102
RTVSPropertyOp2
 70
     1
102
RTVSPropertyOp3
 70
     1
102
RTVSPropertyOp4
 70
     1
102
RTVSPropertyOp5
 70
     1
102
RTVSPropertyOp6
 70
     1
102
RTVSPropertyOp7
 70
     1
102
RTVSPropertyOp8
 70
     1
102
RTVSPropertyOp9
 70
     1
102
RTVSPropertyOp10
 70
     1
102
RTVSPropertyOp11
 70
     1
102
RTVSPropertyOp12
 70
     1
102
RTVSPropertyOp13
 70
     1
102
RTVSPropertyOp14
 70
     1
102
RTVSPropertyOp15
 70
     1
102
RTVSPropertyOp16
 70
     1
102
RTVSPropertyOp17
 70
     1
102
RTVSPropertyOp18
 70
     1
102
RTVSPropertyOp19
 70
     1
102
RTVSPropertyOp20
 70
     1
102
RTVSPropertyOp21
 70
     1
102
RTVSPropertyOp22
 70
     1
102
RTVSPropertyOp23
 70
     1
102
RTVSPropertyOp24
 70
     1
102
RTVSPropertyOp25
 70
     1
102
RTVSPropertyOp26
 70
     1
102
RTVSPropertyOp27
 70
     1
102
RTVSPropertyOp28
 70
     1
102
RTVSPropertyOp29
 70
     1
102
RTVSPropertyOp30
 70
     1
102
RTVSPropertyOp31
 70
     1
102
RTVSPropertyOp32
 70
     1
102
RTVSPropertyOp33
 70
     1
102
RTVSPropertyOp34
 70
     1
102
RTVSPropertyOp35
 70
     1
102
RTVSPropertyOp36
 70
     1
102
RTVSPropertyOp37
 70
     1
102
RTVSPropertyOp38
 70
     1
102
RTVSPropertyOp39
 70
     1
102
RTVSPropertyOp40
 70
     1
102
RTVSPropertyOp41
 70
     1
102
RTVSPropertyOp42
 70
     1
102
RTVSPropertyOp43
 70
     1
102
RTVSPropertyOp44
 70
     1
102
RTVSPropertyOp45
 70
     1
102
RTVSPropertyOp46
 70
     1
102
RTVSPropertyOp47
 70
     1
102
RTVSPropertyOp48
 70
     1
102
RTVSPropertyOp49
 70
     1
102
RTVSPropertyOp50
 70
     1
102
RTVSPropertyOp51
 70
     0
102
RTVSPropertyOp52
 70
     0
102
RTVSPropertyOp53
 70
     1
102
RTVSPropertyOp54
 70
     1
102
RTVSPropertyOp55
 70
     1
102
RTVSPropertyOp56
 70
     1
102
RTVSPropertyOp57
 70
     1
102
RTVSPropertyOp58
 70
     1
102
RTVSPropertyOp59
 70
     1
102
RTVSPropertyOp60
 70
     1
102
RTVSPropertyOp61
 70
     1
102
RTVSPropertyOp62
 70
     1
  0
XRECORD
  5
1BA0F
102
{ACAD_REACTORS
330
1BA0E
102
}
330
1BA0E
100
AcDbXrecord
280
     1
102
RTVSPost2010Prop28
280
     0
102
RTVSPost2010PropOp28
 70
     1
102
RTVSPost2010Prop29
280
     1
102
RTVSPost2010PropOp29
 70
     1
102
RTVSPost2010Prop30
280
     1
102
RTVSPost2010PropOp30
 70
     1
102
RTVSPost2010Prop31
280
     0
102
RTVSPost2010PropOp31
 70
     1
102
RTVSPost2010Prop32
280
     0
102
RTVSPost2010PropOp32
 70
     1
102
RTVSPost2010Prop33
280
     0
102
RTVSPost2010PropOp33
 70
     1
102
RTVSPost2010Prop34
280
     0
102
RTVSPost2010PropOp34
 70
     1
102
RTVSPost2010Prop35
280
     0
102
RTVSPost2010PropOp35
 70
     1
102
RTVSPost2010Prop36
280
     0
102
RTVSPost2010PropOp36
 70
     1
102
RTVSPost2010Prop37
 90
       50
102
RTVSPost2010PropOp37
 70
     1
102
RTVSPost2010Prop38
140
0.0
102
RTVSPost2010PropOp38
 70
     1
102
RTVSPost2010Prop39
140
1.0
102
RTVSPost2010PropOp39
 70
     1
102
RTVSPost2010Prop40
 90
        0
102
RTVSPost2010PropOp40
 70
     1
102
RTVSPost2010Prop41ColorIndex
 90
       18
102
RTVSPost2010Prop41ColorRGB
 90
        0
102
RTVSPost2010PropOp41
 70
     1
102
RTVSPost2010Prop42
 90
       50
102
RTVSPost2010PropOp42
 70
     1
102
RTVSPost2010Prop43
 90
        3
102
RTVSPost2010PropOp43
 70
     1
102
RTVSPost2010Prop44ColorIndex
 90
        5
102
RTVSPost2010Prop44ColorRGB
 90
      255
102
RTVSPost2010PropOp44
 70
     1
102
RTVSPost2010Prop45
280
     0
102
RTVSPost2010PropOp45
 70
     1
102
RTVSPost2010Prop46
 90
       50
102
RTVSPost2010PropOp46
 70
     1
102
RTVSPost2010Prop47
 90
       50
102
RTVSPost2010PropOp47
 70
     1
102
RTVSPost2010Prop48
 90
       50
102
RTVSPost2010PropOp48
 70
     1
102
RTVSPost2010Prop49
280
     0
102
RTVSPost2010PropOp49
 70
     1
102
RTVSPost2010Prop50
 90
       50
102
RTVSPost2010PropOp50
 70
     1
102
RTVSPost2010Prop51ColorIndex
 90
      256
102
RTVSPost2010Prop51ColorRGB
 90
-16777216
102
RTVSPost2010PropOp51
 70
     0
102
RTVSPost2010Prop52
140
1.0
102
RTVSPost2010PropOp52
 70
     0
102
RTVSPost2010Prop53
 90
        2
102
RTVSPost2010PropOp53
 70
     1
102
RTVSPost2010Prop54
  1
strokes_ogs.tif
102
RTVSPost2010PropOp54
 70
     1
102
RTVSPost2010Prop55
280
     0
102
RTVSPost2010PropOp55
 70
     1
102
RTVSPost2010Prop56
140
1.0
102
RTVSPost2010PropOp56
 70
     1
102
RTVSPost2010Prop57
140
1.0
102
RTVSPost2010PropOp57
 70
     1
102
RTVSPropertyOp0
 70
     0
102
RTVSPropertyOp1
 70
     0
102
RTVSPropertyOp2
 70
     0
102
RTVSPropertyOp3
 70
     0
102
RTVSPropertyOp4
 70
     0
102
RTVSPropertyOp5
 70
     0
102
RTVSPropertyOp6
 70
     0
102
RTVSPropertyOp7
 70
     0
102
RTVSPropertyOp8
 70
     0
102
RTVSPropertyOp9
 70
     0
102
RTVSPropertyOp10
 70
     0
102
RTVSPropertyOp11
 70
     0
102
RTVSPropertyOp12
 70
     0
102
RTVSPropertyOp13
 70
     0
102
RTVSPropertyOp14
 70
     2
102
RTVSPropertyOp15
 70
     0
102
RTVSPropertyOp16
 70
     0
102
RTVSPropertyOp17
 70
     0
102
RTVSPropertyOp18
 70
     0
102
RTVSPropertyOp19
 70
     0
102
RTVSPropertyOp20
 70
     0
102
RTVSPropertyOp21
 70
     0
102
RTVSPropertyOp22
 70
     0
102
RTVSPropertyOp23
 70
     0
102
RTVSPropertyOp24
 70
     0
102
RTVSPropertyOp25
 70
     0
102
RTVSPropertyOp26
 70
     0
102
RTVSPropertyOp27
 70
     0
102
RTVSPropertyOp28
 70
     1
102
RTVSPropertyOp29
 70
     1
102
RTVSPropertyOp30
 70
     1
102
RTVSPropertyOp31
 70
     1
102
RTVSPropertyOp32
 70
     1
102
RTVSPropertyOp33
 70
     1
102
RTVSPropertyOp34
 70
     1
102
RTVSPropertyOp35
 70
     1
102
RTVSPropertyOp36
 70
     1
102
RTVSPropertyOp37
 70
     1
102
RTVSPropertyOp38
 70
     1
102
RTVSPropertyOp39
 70
     1
102
RTVSPropertyOp40
 70
     1
102
RTVSPropertyOp41
 70
     1
102
RTVSPropertyOp42
 70
     1
102
RTVSPropertyOp43
 70
     1
102
RTVSPropertyOp44
 70
     1
102
RTVSPropertyOp45
 70
     1
102
RTVSPropertyOp46
 70
     1
102
RTVSPropertyOp47
 70
     1
102
RTVSPropertyOp48
 70
     1
102
RTVSPropertyOp49
 70
     1
102
RTVSPropertyOp50
 70
     1
102
RTVSPropertyOp51
 70
     0
102
RTVSPropertyOp52
 70
     0
102
RTVSPropertyOp53
 70
     1
102
RTVSPropertyOp54
 70
     1
102
RTVSPropertyOp55
 70
     1
102
RTVSPropertyOp56
 70
     1
102
RTVSPropertyOp57
 70
     1
102
RTVSPropertyOp58
 70
     1
102
RTVSPropertyOp59
 70
     1
102
RTVSPropertyOp60
 70
     1
102
RTVSPropertyOp61
 70
     1
102
RTVSPropertyOp62
 70
     1
  0
XRECORD
  5
1B9FD
102
{ACAD_REACTORS
330
1B9FC
102
}
330
1B9FC
100
AcDbXrecord
280
     1
102
RTVSPost2010Prop28
280
     0
102
RTVSPost2010PropOp28
 70
     1
102
RTVSPost2010Prop29
280
     1
102
RTVSPost2010PropOp29
 70
     1
102
RTVSPost2010Prop30
280
     1
102
RTVSPost2010PropOp30
 70
     1
102
RTVSPost2010Prop31
280
     0
102
RTVSPost2010PropOp31
 70
     1
102
RTVSPost2010Prop32
280
     0
102
RTVSPost2010PropOp32
 70
     1
102
RTVSPost2010Prop33
280
     0
102
RTVSPost2010PropOp33
 70
     1
102
RTVSPost2010Prop34
280
     0
102
RTVSPost2010PropOp34
 70
     1
102
RTVSPost2010Prop35
280
     0
102
RTVSPost2010PropOp35
 70
     1
102
RTVSPost2010Prop36
280
     0
102
RTVSPost2010PropOp36
 70
     1
102
RTVSPost2010Prop37
 90
       50
102
RTVSPost2010PropOp37
 70
     1
102
RTVSPost2010Prop38
140
0.0
102
RTVSPost2010PropOp38
 70
     1
102
RTVSPost2010Prop39
140
1.0
102
RTVSPost2010PropOp39
 70
     1
102
RTVSPost2010Prop40
 90
        0
102
RTVSPost2010PropOp40
 70
     1
102
RTVSPost2010Prop41ColorIndex
 90
       18
102
RTVSPost2010Prop41ColorRGB
 90
        0
102
RTVSPost2010PropOp41
 70
     1
102
RTVSPost2010Prop42
 90
       50
102
RTVSPost2010PropOp42
 70
     1
102
RTVSPost2010Prop43
 90
        3
102
RTVSPost2010PropOp43
 70
     1
102
RTVSPost2010Prop44ColorIndex
 90
        5
102
RTVSPost2010Prop44ColorRGB
 90
      255
102
RTVSPost2010PropOp44
 70
     1
102
RTVSPost2010Prop45
280
     0
102
RTVSPost2010PropOp45
 70
     1
102
RTVSPost2010Prop46
 90
       50
102
RTVSPost2010PropOp46
 70
     1
102
RTVSPost2010Prop47
 90
       50
102
RTVSPost2010PropOp47
 70
     1
102
RTVSPost2010Prop48
 90
       50
102
RTVSPost2010PropOp48
 70
     1
102
RTVSPost2010Prop49
280
     0
102
RTVSPost2010PropOp49
 70
     1
102
RTVSPost2010Prop50
 90
       50
102
RTVSPost2010PropOp50
 70
     1
102
RTVSPost2010Prop51ColorIndex
 90
      256
102
RTVSPost2010Prop51ColorRGB
 90
-16777216
102
RTVSPost2010PropOp51
 70
     0
102
RTVSPost2010Prop52
140
1.0
102
RTVSPost2010PropOp52
 70
     0
102
RTVSPost2010Prop53
 90
        2
102
RTVSPost2010PropOp53
 70
     1
102
RTVSPost2010Prop54
  1
strokes_ogs.tif
102
RTVSPost2010PropOp54
 70
     1
102
RTVSPost2010Prop55
280
     0
102
RTVSPost2010PropOp55
 70
     1
102
RTVSPost2010Prop56
140
1.0
102
RTVSPost2010PropOp56
 70
     1
102
RTVSPost2010Prop57
140
1.0
102
RTVSPost2010PropOp57
 70
     1
102
RTVSPropertyOp0
 70
     1
102
RTVSPropertyOp1
 70
     1
102
RTVSPropertyOp2
 70
     1
102
RTVSPropertyOp3
 70
     1
102
RTVSPropertyOp4
 70
     1
102
RTVSPropertyOp5
 70
     1
102
RTVSPropertyOp6
 70
     1
102
RTVSPropertyOp7
 70
     1
102
RTVSPropertyOp8
 70
     1
102
RTVSPropertyOp9
 70
     1
102
RTVSPropertyOp10
 70
     1
102
RTVSPropertyOp11
 70
     1
102
RTVSPropertyOp12
 70
     1
102
RTVSPropertyOp13
 70
     1
102
RTVSPropertyOp14
 70
     1
102
RTVSPropertyOp15
 70
     1
102
RTVSPropertyOp16
 70
     1
102
RTVSPropertyOp17
 70
     1
102
RTVSPropertyOp18
 70
     1
102
RTVSPropertyOp19
 70
     1
102
RTVSPropertyOp20
 70
     1
102
RTVSPropertyOp21
 70
     1
102
RTVSPropertyOp22
 70
     1
102
RTVSPropertyOp23
 70
     1
102
RTVSPropertyOp24
 70
     1
102
RTVSPropertyOp25
 70
     1
102
RTVSPropertyOp26
 70
     1
102
RTVSPropertyOp27
 70
     1
102
RTVSPropertyOp28
 70
     1
102
RTVSPropertyOp29
 70
     1
102
RTVSPropertyOp30
 70
     1
102
RTVSPropertyOp31
 70
     1
102
RTVSPropertyOp32
 70
     1
102
RTVSPropertyOp33
 70
     1
102
RTVSPropertyOp34
 70
     1
102
RTVSPropertyOp35
 70
     1
102
RTVSPropertyOp36
 70
     1
102
RTVSPropertyOp37
 70
     1
102
RTVSPropertyOp38
 70
     1
102
RTVSPropertyOp39
 70
     1
102
RTVSPropertyOp40
 70
     1
102
RTVSPropertyOp41
 70
     1
102
RTVSPropertyOp42
 70
     1
102
RTVSPropertyOp43
 70
     1
102
RTVSPropertyOp44
 70
     1
102
RTVSPropertyOp45
 70
     1
102
RTVSPropertyOp46
 70
     1
102
RTVSPropertyOp47
 70
     1
102
RTVSPropertyOp48
 70
     1
102
RTVSPropertyOp49
 70
     1
102
RTVSPropertyOp50
 70
     1
102
RTVSPropertyOp51
 70
     0
102
RTVSPropertyOp52
 70
     0
102
RTVSPropertyOp53
 70
     1
102
RTVSPropertyOp54
 70
     1
102
RTVSPropertyOp55
 70
     1
102
RTVSPropertyOp56
 70
     1
102
RTVSPropertyOp57
 70
     1
102
RTVSPropertyOp58
 70
     1
102
RTVSPropertyOp59
 70
     1
102
RTVSPropertyOp60
 70
     1
102
RTVSPropertyOp61
 70
     1
102
RTVSPropertyOp62
 70
     1
  0
XRECORD
  5
1BA1B
102
{ACAD_REACTORS
330
1BA1A
102
}
330
1BA1A
100
AcDbXrecord
280
     1
102
RTVSPost2010Prop28
280
     0
102
RTVSPost2010PropOp28
 70
     1
102
RTVSPost2010Prop29
280
     1
102
RTVSPost2010PropOp29
 70
     1
102
RTVSPost2010Prop30
280
     1
102
RTVSPost2010PropOp30
 70
     1
102
RTVSPost2010Prop31
280
     0
102
RTVSPost2010PropOp31
 70
     1
102
RTVSPost2010Prop32
280
     0
102
RTVSPost2010PropOp32
 70
     1
102
RTVSPost2010Prop33
280
     0
102
RTVSPost2010PropOp33
 70
     1
102
RTVSPost2010Prop34
280
     0
102
RTVSPost2010PropOp34
 70
     1
102
RTVSPost2010Prop35
280
     0
102
RTVSPost2010PropOp35
 70
     1
102
RTVSPost2010Prop36
280
     0
102
RTVSPost2010PropOp36
 70
     1
102
RTVSPost2010Prop37
 90
       50
102
RTVSPost2010PropOp37
 70
     1
102
RTVSPost2010Prop38
140
0.0
102
RTVSPost2010PropOp38
 70
     1
102
RTVSPost2010Prop39
140
1.0
102
RTVSPost2010PropOp39
 70
     1
102
RTVSPost2010Prop40
 90
        0
102
RTVSPost2010PropOp40
 70
     1
102
RTVSPost2010Prop41ColorIndex
 90
       18
102
RTVSPost2010Prop41ColorRGB
 90
        0
102
RTVSPost2010PropOp41
 70
     1
102
RTVSPost2010Prop42
 90
       50
102
RTVSPost2010PropOp42
 70
     1
102
RTVSPost2010Prop43
 90
        3
102
RTVSPost2010PropOp43
 70
     1
102
RTVSPost2010Prop44ColorIndex
 90
        5
102
RTVSPost2010Prop44ColorRGB
 90
      255
102
RTVSPost2010PropOp44
 70
     1
102
RTVSPost2010Prop45
280
     0
102
RTVSPost2010PropOp45
 70
     1
102
RTVSPost2010Prop46
 90
       50
102
RTVSPost2010PropOp46
 70
     1
102
RTVSPost2010Prop47
 90
       50
102
RTVSPost2010PropOp47
 70
     1
102
RTVSPost2010Prop48
 90
       50
102
RTVSPost2010PropOp48
 70
     1
102
RTVSPost2010Prop49
280
     0
102
RTVSPost2010PropOp49
 70
     1
102
RTVSPost2010Prop50
 90
       50
102
RTVSPost2010PropOp50
 70
     1
102
RTVSPost2010Prop51ColorIndex
 90
      256
102
RTVSPost2010Prop51ColorRGB
 90
-16777216
102
RTVSPost2010PropOp51
 70
     0
102
RTVSPost2010Prop52
140
1.0
102
RTVSPost2010PropOp52
 70
     0
102
RTVSPost2010Prop53
 90
        2
102
RTVSPost2010PropOp53
 70
     1
102
RTVSPost2010Prop54
  1
strokes_ogs.tif
102
RTVSPost2010PropOp54
 70
     1
102
RTVSPost2010Prop55
280
     0
102
RTVSPost2010PropOp55
 70
     1
102
RTVSPost2010Prop56
140
1.0
102
RTVSPost2010PropOp56
 70
     1
102
RTVSPost2010Prop57
140
1.0
102
RTVSPost2010PropOp57
 70
     1
102
RTVSPropertyOp0
 70
     1
102
RTVSPropertyOp1
 70
     1
102
RTVSPropertyOp2
 70
     1
102
RTVSPropertyOp3
 70
     1
102
RTVSPropertyOp4
 70
     1
102
RTVSPropertyOp5
 70
     1
102
RTVSPropertyOp6
 70
     1
102
RTVSPropertyOp7
 70
     1
102
RTVSPropertyOp8
 70
     1
102
RTVSPropertyOp9
 70
     1
102
RTVSPropertyOp10
 70
     1
102
RTVSPropertyOp11
 70
     1
102
RTVSPropertyOp12
 70
     1
102
RTVSPropertyOp13
 70
     1
102
RTVSPropertyOp14
 70
     1
102
RTVSPropertyOp15
 70
     1
102
RTVSPropertyOp16
 70
     1
102
RTVSPropertyOp17
 70
     1
102
RTVSPropertyOp18
 70
     1
102
RTVSPropertyOp19
 70
     1
102
RTVSPropertyOp20
 70
     1
102
RTVSPropertyOp21
 70
     1
102
RTVSPropertyOp22
 70
     1
102
RTVSPropertyOp23
 70
     1
102
RTVSPropertyOp24
 70
     1
102
RTVSPropertyOp25
 70
     1
102
RTVSPropertyOp26
 70
     1
102
RTVSPropertyOp27
 70
     1
102
RTVSPropertyOp28
 70
     1
102
RTVSPropertyOp29
 70
     1
102
RTVSPropertyOp30
 70
     1
102
RTVSPropertyOp31
 70
     1
102
RTVSPropertyOp32
 70
     1
102
RTVSPropertyOp33
 70
     1
102
RTVSPropertyOp34
 70
     1
102
RTVSPropertyOp35
 70
     1
102
RTVSPropertyOp36
 70
     1
102
RTVSPropertyOp37
 70
     1
102
RTVSPropertyOp38
 70
     1
102
RTVSPropertyOp39
 70
     1
102
RTVSPropertyOp40
 70
     1
102
RTVSPropertyOp41
 70
     1
102
RTVSPropertyOp42
 70
     1
102
RTVSPropertyOp43
 70
     1
102
RTVSPropertyOp44
 70
     1
102
RTVSPropertyOp45
 70
     1
102
RTVSPropertyOp46
 70
     1
102
RTVSPropertyOp47
 70
     1
102
RTVSPropertyOp48
 70
     1
102
RTVSPropertyOp49
 70
     1
102
RTVSPropertyOp50
 70
     1
102
RTVSPropertyOp51
 70
     0
102
RTVSPropertyOp52
 70
     0
102
RTVSPropertyOp53
 70
     1
102
RTVSPropertyOp54
 70
     1
102
RTVSPropertyOp55
 70
     1
102
RTVSPropertyOp56
 70
     1
102
RTVSPropertyOp57
 70
     1
102
RTVSPropertyOp58
 70
     1
102
RTVSPropertyOp59
 70
     1
102
RTVSPropertyOp60
 70
     1
102
RTVSPropertyOp61
 70
     1
102
RTVSPropertyOp62
 70
     1
  0
XRECORD
  5
1BA19
102
{ACAD_REACTORS
330
1BA18
102
}
330
1BA18
100
AcDbXrecord
280
     1
102
RTVSPost2010Prop28
280
     0
102
RTVSPost2010PropOp28
 70
     1
102
RTVSPost2010Prop29
280
     1
102
RTVSPost2010PropOp29
 70
     1
102
RTVSPost2010Prop30
280
     1
102
RTVSPost2010PropOp30
 70
     1
102
RTVSPost2010Prop31
280
     0
102
RTVSPost2010PropOp31
 70
     1
102
RTVSPost2010Prop32
280
     0
102
RTVSPost2010PropOp32
 70
     1
102
RTVSPost2010Prop33
280
     0
102
RTVSPost2010PropOp33
 70
     1
102
RTVSPost2010Prop34
280
     0
102
RTVSPost2010PropOp34
 70
     1
102
RTVSPost2010Prop35
280
     0
102
RTVSPost2010PropOp35
 70
     1
102
RTVSPost2010Prop36
280
     0
102
RTVSPost2010PropOp36
 70
     1
102
RTVSPost2010Prop37
 90
       50
102
RTVSPost2010PropOp37
 70
     1
102
RTVSPost2010Prop38
140
0.0
102
RTVSPost2010PropOp38
 70
     1
102
RTVSPost2010Prop39
140
1.0
102
RTVSPost2010PropOp39
 70
     1
102
RTVSPost2010Prop40
 90
        0
102
RTVSPost2010PropOp40
 70
     1
102
RTVSPost2010Prop41ColorIndex
 90
       18
102
RTVSPost2010Prop41ColorRGB
 90
        0
102
RTVSPost2010PropOp41
 70
     1
102
RTVSPost2010Prop42
 90
       50
102
RTVSPost2010PropOp42
 70
     1
102
RTVSPost2010Prop43
 90
        3
102
RTVSPost2010PropOp43
 70
     1
102
RTVSPost2010Prop44ColorIndex
 90
        5
102
RTVSPost2010Prop44ColorRGB
 90
      255
102
RTVSPost2010PropOp44
 70
     1
102
RTVSPost2010Prop45
280
     0
102
RTVSPost2010PropOp45
 70
     1
102
RTVSPost2010Prop46
 90
       50
102
RTVSPost2010PropOp46
 70
     1
102
RTVSPost2010Prop47
 90
       50
102
RTVSPost2010PropOp47
 70
     1
102
RTVSPost2010Prop48
 90
       50
102
RTVSPost2010PropOp48
 70
     1
102
RTVSPost2010Prop49
280
     0
102
RTVSPost2010PropOp49
 70
     1
102
RTVSPost2010Prop50
 90
       50
102
RTVSPost2010PropOp50
 70
     1
102
RTVSPost2010Prop51ColorIndex
 90
      256
102
RTVSPost2010Prop51ColorRGB
 90
-16777216
102
RTVSPost2010PropOp51
 70
     0
102
RTVSPost2010Prop52
140
1.0
102
RTVSPost2010PropOp52
 70
     0
102
RTVSPost2010Prop53
 90
        2
102
RTVSPost2010PropOp53
 70
     1
102
RTVSPost2010Prop54
  1
strokes_ogs.tif
102
RTVSPost2010PropOp54
 70
     1
102
RTVSPost2010Prop55
280
     0
102
RTVSPost2010PropOp55
 70
     1
102
RTVSPost2010Prop56
140
1.0
102
RTVSPost2010PropOp56
 70
     1
102
RTVSPost2010Prop57
140
1.0
102
RTVSPost2010PropOp57
 70
     1
102
RTVSPropertyOp0
 70
     1
102
RTVSPropertyOp1
 70
     1
102
RTVSPropertyOp2
 70
     1
102
RTVSPropertyOp3
 70
     1
102
RTVSPropertyOp4
 70
     1
102
RTVSPropertyOp5
 70
     1
102
RTVSPropertyOp6
 70
     1
102
RTVSPropertyOp7
 70
     1
102
RTVSPropertyOp8
 70
     1
102
RTVSPropertyOp9
 70
     1
102
RTVSPropertyOp10
 70
     1
102
RTVSPropertyOp11
 70
     1
102
RTVSPropertyOp12
 70
     1
102
RTVSPropertyOp13
 70
     1
102
RTVSPropertyOp14
 70
     1
102
RTVSPropertyOp15
 70
     1
102
RTVSPropertyOp16
 70
     1
102
RTVSPropertyOp17
 70
     1
102
RTVSPropertyOp18
 70
     1
102
RTVSPropertyOp19
 70
     1
102
RTVSPropertyOp20
 70
     1
102
RTVSPropertyOp21
 70
     1
102
RTVSPropertyOp22
 70
     1
102
RTVSPropertyOp23
 70
     1
102
RTVSPropertyOp24
 70
     1
102
RTVSPropertyOp25
 70
     1
102
RTVSPropertyOp26
 70
     1
102
RTVSPropertyOp27
 70
     1
102
RTVSPropertyOp28
 70
     1
102
RTVSPropertyOp29
 70
     1
102
RTVSPropertyOp30
 70
     1
102
RTVSPropertyOp31
 70
     1
102
RTVSPropertyOp32
 70
     1
102
RTVSPropertyOp33
 70
     1
102
RTVSPropertyOp34
 70
     1
102
RTVSPropertyOp35
 70
     1
102
RTVSPropertyOp36
 70
     1
102
RTVSPropertyOp37
 70
     1
102
RTVSPropertyOp38
 70
     1
102
RTVSPropertyOp39
 70
     1
102
RTVSPropertyOp40
 70
     1
102
RTVSPropertyOp41
 70
     1
102
RTVSPropertyOp42
 70
     1
102
RTVSPropertyOp43
 70
     1
102
RTVSPropertyOp44
 70
     1
102
RTVSPropertyOp45
 70
     1
102
RTVSPropertyOp46
 70
     1
102
RTVSPropertyOp47
 70
     1
102
RTVSPropertyOp48
 70
     1
102
RTVSPropertyOp49
 70
     1
102
RTVSPropertyOp50
 70
     1
102
RTVSPropertyOp51
 70
     0
102
RTVSPropertyOp52
 70
     0
102
RTVSPropertyOp53
 70
     1
102
RTVSPropertyOp54
 70
     1
102
RTVSPropertyOp55
 70
     1
102
RTVSPropertyOp56
 70
     1
102
RTVSPropertyOp57
 70
     1
102
RTVSPropertyOp58
 70
     1
102
RTVSPropertyOp59
 70
     1
102
RTVSPropertyOp60
 70
     1
102
RTVSPropertyOp61
 70
     1
102
RTVSPropertyOp62
 70
     1
  0
XRECORD
  5
1BA13
102
{ACAD_REACTORS
330
1BA12
102
}
330
1BA12
100
AcDbXrecord
280
     1
102
RTVSPost2010Prop28
280
     0
102
RTVSPost2010PropOp28
 70
     1
102
RTVSPost2010Prop29
280
     1
102
RTVSPost2010PropOp29
 70
     1
102
RTVSPost2010Prop30
280
     1
102
RTVSPost2010PropOp30
 70
     1
102
RTVSPost2010Prop31
280
     0
102
RTVSPost2010PropOp31
 70
     1
102
RTVSPost2010Prop32
280
     0
102
RTVSPost2010PropOp32
 70
     1
102
RTVSPost2010Prop33
280
     0
102
RTVSPost2010PropOp33
 70
     1
102
RTVSPost2010Prop34
280
     0
102
RTVSPost2010PropOp34
 70
     1
102
RTVSPost2010Prop35
280
     0
102
RTVSPost2010PropOp35
 70
     1
102
RTVSPost2010Prop36
280
     0
102
RTVSPost2010PropOp36
 70
     1
102
RTVSPost2010Prop37
 90
       50
102
RTVSPost2010PropOp37
 70
     1
102
RTVSPost2010Prop38
140
0.0
102
RTVSPost2010PropOp38
 70
     1
102
RTVSPost2010Prop39
140
1.0
102
RTVSPost2010PropOp39
 70
     1
102
RTVSPost2010Prop40
 90
        0
102
RTVSPost2010PropOp40
 70
     1
102
RTVSPost2010Prop41ColorIndex
 90
       18
102
RTVSPost2010Prop41ColorRGB
 90
        0
102
RTVSPost2010PropOp41
 70
     1
102
RTVSPost2010Prop42
 90
       50
102
RTVSPost2010PropOp42
 70
     1
102
RTVSPost2010Prop43
 90
        3
102
RTVSPost2010PropOp43
 70
     1
102
RTVSPost2010Prop44ColorIndex
 90
        5
102
RTVSPost2010Prop44ColorRGB
 90
      255
102
RTVSPost2010PropOp44
 70
     1
102
RTVSPost2010Prop45
280
     0
102
RTVSPost2010PropOp45
 70
     1
102
RTVSPost2010Prop46
 90
       50
102
RTVSPost2010PropOp46
 70
     1
102
RTVSPost2010Prop47
 90
       50
102
RTVSPost2010PropOp47
 70
     1
102
RTVSPost2010Prop48
 90
       50
102
RTVSPost2010PropOp48
 70
     1
102
RTVSPost2010Prop49
280
     0
102
RTVSPost2010PropOp49
 70
     1
102
RTVSPost2010Prop50
 90
       50
102
RTVSPost2010PropOp50
 70
     1
102
RTVSPost2010Prop51ColorIndex
 90
      256
102
RTVSPost2010Prop51ColorRGB
 90
-16777216
102
RTVSPost2010PropOp51
 70
     0
102
RTVSPost2010Prop52
140
1.0
102
RTVSPost2010PropOp52
 70
     0
102
RTVSPost2010Prop53
 90
        2
102
RTVSPost2010PropOp53
 70
     1
102
RTVSPost2010Prop54
  1
strokes_ogs.tif
102
RTVSPost2010PropOp54
 70
     1
102
RTVSPost2010Prop55
280
     0
102
RTVSPost2010PropOp55
 70
     1
102
RTVSPost2010Prop56
140
1.0
102
RTVSPost2010PropOp56
 70
     1
102
RTVSPost2010Prop57
140
1.0
102
RTVSPost2010PropOp57
 70
     1
102
RTVSPropertyOp0
 70
     1
102
RTVSPropertyOp1
 70
     1
102
RTVSPropertyOp2
 70
     1
102
RTVSPropertyOp3
 70
     1
102
RTVSPropertyOp4
 70
     1
102
RTVSPropertyOp5
 70
     1
102
RTVSPropertyOp6
 70
     1
102
RTVSPropertyOp7
 70
     1
102
RTVSPropertyOp8
 70
     1
102
RTVSPropertyOp9
 70
     1
102
RTVSPropertyOp10
 70
     1
102
RTVSPropertyOp11
 70
     1
102
RTVSPropertyOp12
 70
     1
102
RTVSPropertyOp13
 70
     1
102
RTVSPropertyOp14
 70
     1
102
RTVSPropertyOp15
 70
     1
102
RTVSPropertyOp16
 70
     1
102
RTVSPropertyOp17
 70
     1
102
RTVSPropertyOp18
 70
     1
102
RTVSPropertyOp19
 70
     1
102
RTVSPropertyOp20
 70
     1
102
RTVSPropertyOp21
 70
     1
102
RTVSPropertyOp22
 70
     1
102
RTVSPropertyOp23
 70
     1
102
RTVSPropertyOp24
 70
     1
102
RTVSPropertyOp25
 70
     1
102
RTVSPropertyOp26
 70
     1
102
RTVSPropertyOp27
 70
     1
102
RTVSPropertyOp28
 70
     1
102
RTVSPropertyOp29
 70
     1
102
RTVSPropertyOp30
 70
     1
102
RTVSPropertyOp31
 70
     1
102
RTVSPropertyOp32
 70
     1
102
RTVSPropertyOp33
 70
     1
102
RTVSPropertyOp34
 70
     1
102
RTVSPropertyOp35
 70
     1
102
RTVSPropertyOp36
 70
     1
102
RTVSPropertyOp37
 70
     1
102
RTVSPropertyOp38
 70
     1
102
RTVSPropertyOp39
 70
     1
102
RTVSPropertyOp40
 70
     1
102
RTVSPropertyOp41
 70
     1
102
RTVSPropertyOp42
 70
     1
102
RTVSPropertyOp43
 70
     1
102
RTVSPropertyOp44
 70
     1
102
RTVSPropertyOp45
 70
     1
102
RTVSPropertyOp46
 70
     1
102
RTVSPropertyOp47
 70
     1
102
RTVSPropertyOp48
 70
     1
102
RTVSPropertyOp49
 70
     1
102
RTVSPropertyOp50
 70
     1
102
RTVSPropertyOp51
 70
     0
102
RTVSPropertyOp52
 70
     0
102
RTVSPropertyOp53
 70
     1
102
RTVSPropertyOp54
 70
     1
102
RTVSPropertyOp55
 70
     1
102
RTVSPropertyOp56
 70
     1
102
RTVSPropertyOp57
 70
     1
102
RTVSPropertyOp58
 70
     1
102
RTVSPropertyOp59
 70
     1
102
RTVSPropertyOp60
 70
     1
102
RTVSPropertyOp61
 70
     1
102
RTVSPropertyOp62
 70
     1
  0
XRECORD
  5
1BA15
102
{ACAD_REACTORS
330
1BA14
102
}
330
1BA14
100
AcDbXrecord
280
     1
102
RTVSPost2010Prop28
280
     0
102
RTVSPost2010PropOp28
 70
     1
102
RTVSPost2010Prop29
280
     1
102
RTVSPost2010PropOp29
 70
     1
102
RTVSPost2010Prop30
280
     1
102
RTVSPost2010PropOp30
 70
     1
102
RTVSPost2010Prop31
280
     0
102
RTVSPost2010PropOp31
 70
     1
102
RTVSPost2010Prop32
280
     0
102
RTVSPost2010PropOp32
 70
     1
102
RTVSPost2010Prop33
280
     0
102
RTVSPost2010PropOp33
 70
     1
102
RTVSPost2010Prop34
280
     0
102
RTVSPost2010PropOp34
 70
     1
102
RTVSPost2010Prop35
280
     0
102
RTVSPost2010PropOp35
 70
     1
102
RTVSPost2010Prop36
280
     0
102
RTVSPost2010PropOp36
 70
     1
102
RTVSPost2010Prop37
 90
       50
102
RTVSPost2010PropOp37
 70
     1
102
RTVSPost2010Prop38
140
0.0
102
RTVSPost2010PropOp38
 70
     1
102
RTVSPost2010Prop39
140
1.0
102
RTVSPost2010PropOp39
 70
     1
102
RTVSPost2010Prop40
 90
        0
102
RTVSPost2010PropOp40
 70
     1
102
RTVSPost2010Prop41ColorIndex
 90
       18
102
RTVSPost2010Prop41ColorRGB
 90
        0
102
RTVSPost2010PropOp41
 70
     1
102
RTVSPost2010Prop42
 90
       50
102
RTVSPost2010PropOp42
 70
     1
102
RTVSPost2010Prop43
 90
        3
102
RTVSPost2010PropOp43
 70
     1
102
RTVSPost2010Prop44ColorIndex
 90
        5
102
RTVSPost2010Prop44ColorRGB
 90
      255
102
RTVSPost2010PropOp44
 70
     1
102
RTVSPost2010Prop45
280
     0
102
RTVSPost2010PropOp45
 70
     1
102
RTVSPost2010Prop46
 90
       50
102
RTVSPost2010PropOp46
 70
     1
102
RTVSPost2010Prop47
 90
       50
102
RTVSPost2010PropOp47
 70
     1
102
RTVSPost2010Prop48
 90
       50
102
RTVSPost2010PropOp48
 70
     1
102
RTVSPost2010Prop49
280
     0
102
RTVSPost2010PropOp49
 70
     1
102
RTVSPost2010Prop50
 90
       50
102
RTVSPost2010PropOp50
 70
     1
102
RTVSPost2010Prop51ColorIndex
 90
      256
102
RTVSPost2010Prop51ColorRGB
 90
-16777216
102
RTVSPost2010PropOp51
 70
     0
102
RTVSPost2010Prop52
140
1.0
102
RTVSPost2010PropOp52
 70
     0
102
RTVSPost2010Prop53
 90
        2
102
RTVSPost2010PropOp53
 70
     1
102
RTVSPost2010Prop54
  1
strokes_ogs.tif
102
RTVSPost2010PropOp54
 70
     1
102
RTVSPost2010Prop55
280
     0
102
RTVSPost2010PropOp55
 70
     1
102
RTVSPost2010Prop56
140
1.0
102
RTVSPost2010PropOp56
 70
     1
102
RTVSPost2010Prop57
140
1.0
102
RTVSPost2010PropOp57
 70
     1
102
RTVSPropertyOp0
 70
     1
102
RTVSPropertyOp1
 70
     1
102
RTVSPropertyOp2
 70
     1
102
RTVSPropertyOp3
 70
     1
102
RTVSPropertyOp4
 70
     1
102
RTVSPropertyOp5
 70
     1
102
RTVSPropertyOp6
 70
     1
102
RTVSPropertyOp7
 70
     1
102
RTVSPropertyOp8
 70
     1
102
RTVSPropertyOp9
 70
     1
102
RTVSPropertyOp10
 70
     1
102
RTVSPropertyOp11
 70
     1
102
RTVSPropertyOp12
 70
     1
102
RTVSPropertyOp13
 70
     1
102
RTVSPropertyOp14
 70
     1
102
RTVSPropertyOp15
 70
     1
102
RTVSPropertyOp16
 70
     1
102
RTVSPropertyOp17
 70
     1
102
RTVSPropertyOp18
 70
     1
102
RTVSPropertyOp19
 70
     1
102
RTVSPropertyOp20
 70
     1
102
RTVSPropertyOp21
 70
     1
102
RTVSPropertyOp22
 70
     1
102
RTVSPropertyOp23
 70
     1
102
RTVSPropertyOp24
 70
     1
102
RTVSPropertyOp25
 70
     1
102
RTVSPropertyOp26
 70
     1
102
RTVSPropertyOp27
 70
     1
102
RTVSPropertyOp28
 70
     1
102
RTVSPropertyOp29
 70
     1
102
RTVSPropertyOp30
 70
     1
102
RTVSPropertyOp31
 70
     1
102
RTVSPropertyOp32
 70
     1
102
RTVSPropertyOp33
 70
     1
102
RTVSPropertyOp34
 70
     1
102
RTVSPropertyOp35
 70
     1
102
RTVSPropertyOp36
 70
     1
102
RTVSPropertyOp37
 70
     1
102
RTVSPropertyOp38
 70
     1
102
RTVSPropertyOp39
 70
     1
102
RTVSPropertyOp40
 70
     1
102
RTVSPropertyOp41
 70
     1
102
RTVSPropertyOp42
 70
     1
102
RTVSPropertyOp43
 70
     1
102
RTVSPropertyOp44
 70
     1
102
RTVSPropertyOp45
 70
     1
102
RTVSPropertyOp46
 70
     1
102
RTVSPropertyOp47
 70
     1
102
RTVSPropertyOp48
 70
     1
102
RTVSPropertyOp49
 70
     1
102
RTVSPropertyOp50
 70
     1
102
RTVSPropertyOp51
 70
     0
102
RTVSPropertyOp52
 70
     0
102
RTVSPropertyOp53
 70
     1
102
RTVSPropertyOp54
 70
     1
102
RTVSPropertyOp55
 70
     1
102
RTVSPropertyOp56
 70
     1
102
RTVSPropertyOp57
 70
     1
102
RTVSPropertyOp58
 70
     1
102
RTVSPropertyOp59
 70
     1
102
RTVSPropertyOp60
 70
     1
102
RTVSPropertyOp61
 70
     1
102
RTVSPropertyOp62
 70
     1
  0
XRECORD
  5
1BA03
102
{ACAD_REACTORS
330
1BA02
102
}
330
1BA02
100
AcDbXrecord
280
     1
102
RTVSPost2010Prop28
280
     0
102
RTVSPost2010PropOp28
 70
     1
102
RTVSPost2010Prop29
280
     1
102
RTVSPost2010PropOp29
 70
     1
102
RTVSPost2010Prop30
280
     1
102
RTVSPost2010PropOp30
 70
     1
102
RTVSPost2010Prop31
280
     0
102
RTVSPost2010PropOp31
 70
     1
102
RTVSPost2010Prop32
280
     0
102
RTVSPost2010PropOp32
 70
     1
102
RTVSPost2010Prop33
280
     0
102
RTVSPost2010PropOp33
 70
     1
102
RTVSPost2010Prop34
280
     0
102
RTVSPost2010PropOp34
 70
     1
102
RTVSPost2010Prop35
280
     0
102
RTVSPost2010PropOp35
 70
     1
102
RTVSPost2010Prop36
280
     0
102
RTVSPost2010PropOp36
 70
     1
102
RTVSPost2010Prop37
 90
       50
102
RTVSPost2010PropOp37
 70
     1
102
RTVSPost2010Prop38
140
0.0
102
RTVSPost2010PropOp38
 70
     1
102
RTVSPost2010Prop39
140
1.0
102
RTVSPost2010PropOp39
 70
     1
102
RTVSPost2010Prop40
 90
        0
102
RTVSPost2010PropOp40
 70
     1
102
RTVSPost2010Prop41ColorIndex
 90
       18
102
RTVSPost2010Prop41ColorRGB
 90
        0
102
RTVSPost2010PropOp41
 70
     1
102
RTVSPost2010Prop42
 90
       50
102
RTVSPost2010PropOp42
 70
     1
102
RTVSPost2010Prop43
 90
        3
102
RTVSPost2010PropOp43
 70
     1
102
RTVSPost2010Prop44ColorIndex
 90
        5
102
RTVSPost2010Prop44ColorRGB
 90
      255
102
RTVSPost2010PropOp44
 70
     1
102
RTVSPost2010Prop45
280
     0
102
RTVSPost2010PropOp45
 70
     1
102
RTVSPost2010Prop46
 90
       50
102
RTVSPost2010PropOp46
 70
     1
102
RTVSPost2010Prop47
 90
       50
102
RTVSPost2010PropOp47
 70
     1
102
RTVSPost2010Prop48
 90
       50
102
RTVSPost2010PropOp48
 70
     1
102
RTVSPost2010Prop49
280
     0
102
RTVSPost2010PropOp49
 70
     1
102
RTVSPost2010Prop50
 90
       50
102
RTVSPost2010PropOp50
 70
     1
102
RTVSPost2010Prop51ColorIndex
 90
      256
102
RTVSPost2010Prop51ColorRGB
 90
-16777216
102
RTVSPost2010PropOp51
 70
     0
102
RTVSPost2010Prop52
140
1.0
102
RTVSPost2010PropOp52
 70
     0
102
RTVSPost2010Prop53
 90
        2
102
RTVSPost2010PropOp53
 70
     1
102
RTVSPost2010Prop54
  1
strokes_ogs.tif
102
RTVSPost2010PropOp54
 70
     1
102
RTVSPost2010Prop55
280
     0
102
RTVSPost2010PropOp55
 70
     1
102
RTVSPost2010Prop56
140
1.0
102
RTVSPost2010PropOp56
 70
     1
102
RTVSPost2010Prop57
140
1.0
102
RTVSPost2010PropOp57
 70
     1
102
RTVSPropertyOp0
 70
     1
102
RTVSPropertyOp1
 70
     1
102
RTVSPropertyOp2
 70
     1
102
RTVSPropertyOp3
 70
     1
102
RTVSPropertyOp4
 70
     1
102
RTVSPropertyOp5
 70
     1
102
RTVSPropertyOp6
 70
     1
102
RTVSPropertyOp7
 70
     1
102
RTVSPropertyOp8
 70
     1
102
RTVSPropertyOp9
 70
     1
102
RTVSPropertyOp10
 70
     1
102
RTVSPropertyOp11
 70
     1
102
RTVSPropertyOp12
 70
     1
102
RTVSPropertyOp13
 70
     1
102
RTVSPropertyOp14
 70
     1
102
RTVSPropertyOp15
 70
     1
102
RTVSPropertyOp16
 70
     1
102
RTVSPropertyOp17
 70
     1
102
RTVSPropertyOp18
 70
     1
102
RTVSPropertyOp19
 70
     1
102
RTVSPropertyOp20
 70
     1
102
RTVSPropertyOp21
 70
     1
102
RTVSPropertyOp22
 70
     1
102
RTVSPropertyOp23
 70
     1
102
RTVSPropertyOp24
 70
     1
102
RTVSPropertyOp25
 70
     1
102
RTVSPropertyOp26
 70
     1
102
RTVSPropertyOp27
 70
     1
102
RTVSPropertyOp28
 70
     1
102
RTVSPropertyOp29
 70
     1
102
RTVSPropertyOp30
 70
     1
102
RTVSPropertyOp31
 70
     1
102
RTVSPropertyOp32
 70
     1
102
RTVSPropertyOp33
 70
     1
102
RTVSPropertyOp34
 70
     1
102
RTVSPropertyOp35
 70
     1
102
RTVSPropertyOp36
 70
     1
102
RTVSPropertyOp37
 70
     1
102
RTVSPropertyOp38
 70
     1
102
RTVSPropertyOp39
 70
     1
102
RTVSPropertyOp40
 70
     1
102
RTVSPropertyOp41
 70
     1
102
RTVSPropertyOp42
 70
     1
102
RTVSPropertyOp43
 70
     1
102
RTVSPropertyOp44
 70
     1
102
RTVSPropertyOp45
 70
     1
102
RTVSPropertyOp46
 70
     1
102
RTVSPropertyOp47
 70
     1
102
RTVSPropertyOp48
 70
     1
102
RTVSPropertyOp49
 70
     1
102
RTVSPropertyOp50
 70
     1
102
RTVSPropertyOp51
 70
     0
102
RTVSPropertyOp52
 70
     0
102
RTVSPropertyOp53
 70
     1
102
RTVSPropertyOp54
 70
     1
102
RTVSPropertyOp55
 70
     1
102
RTVSPropertyOp56
 70
     1
102
RTVSPropertyOp57
 70
     1
102
RTVSPropertyOp58
 70
     1
102
RTVSPropertyOp59
 70
     1
102
RTVSPropertyOp60
 70
     1
102
RTVSPropertyOp61
 70
     1
102
RTVSPropertyOp62
 70
     1
  0
XRECORD
  5
1B9F7
102
{ACAD_REACTORS
330
1B9F6
102
}
330
1B9F6
100
AcDbXrecord
280
     1
102
RTVSPost2010Prop28
280
     0
102
RTVSPost2010PropOp28
 70
     1
102
RTVSPost2010Prop29
280
     1
102
RTVSPost2010PropOp29
 70
     1
102
RTVSPost2010Prop30
280
     1
102
RTVSPost2010PropOp30
 70
     1
102
RTVSPost2010Prop31
280
     0
102
RTVSPost2010PropOp31
 70
     1
102
RTVSPost2010Prop32
280
     0
102
RTVSPost2010PropOp32
 70
     1
102
RTVSPost2010Prop33
280
     0
102
RTVSPost2010PropOp33
 70
     1
102
RTVSPost2010Prop34
280
     0
102
RTVSPost2010PropOp34
 70
     1
102
RTVSPost2010Prop35
280
     0
102
RTVSPost2010PropOp35
 70
     1
102
RTVSPost2010Prop36
280
     0
102
RTVSPost2010PropOp36
 70
     1
102
RTVSPost2010Prop37
 90
       50
102
RTVSPost2010PropOp37
 70
     1
102
RTVSPost2010Prop38
140
0.0
102
RTVSPost2010PropOp38
 70
     1
102
RTVSPost2010Prop39
140
1.0
102
RTVSPost2010PropOp39
 70
     1
102
RTVSPost2010Prop40
 90
        0
102
RTVSPost2010PropOp40
 70
     1
102
RTVSPost2010Prop41ColorIndex
 90
       18
102
RTVSPost2010Prop41ColorRGB
 90
        0
102
RTVSPost2010PropOp41
 70
     1
102
RTVSPost2010Prop42
 90
       50
102
RTVSPost2010PropOp42
 70
     1
102
RTVSPost2010Prop43
 90
        3
102
RTVSPost2010PropOp43
 70
     1
102
RTVSPost2010Prop44ColorIndex
 90
        5
102
RTVSPost2010Prop44ColorRGB
 90
      255
102
RTVSPost2010PropOp44
 70
     1
102
RTVSPost2010Prop45
280
     0
102
RTVSPost2010PropOp45
 70
     1
102
RTVSPost2010Prop46
 90
       50
102
RTVSPost2010PropOp46
 70
     1
102
RTVSPost2010Prop47
 90
       50
102
RTVSPost2010PropOp47
 70
     1
102
RTVSPost2010Prop48
 90
       50
102
RTVSPost2010PropOp48
 70
     1
102
RTVSPost2010Prop49
280
     0
102
RTVSPost2010PropOp49
 70
     1
102
RTVSPost2010Prop50
 90
       50
102
RTVSPost2010PropOp50
 70
     1
102
RTVSPost2010Prop51ColorIndex
 90
      256
102
RTVSPost2010Prop51ColorRGB
 90
-16777216
102
RTVSPost2010PropOp51
 70
     0
102
RTVSPost2010Prop52
140
1.0
102
RTVSPost2010PropOp52
 70
     0
102
RTVSPost2010Prop53
 90
        2
102
RTVSPost2010PropOp53
 70
     1
102
RTVSPost2010Prop54
  1
strokes_ogs.tif
102
RTVSPost2010PropOp54
 70
     1
102
RTVSPost2010Prop55
280
     0
102
RTVSPost2010PropOp55
 70
     1
102
RTVSPost2010Prop56
140
1.0
102
RTVSPost2010PropOp56
 70
     1
102
RTVSPost2010Prop57
140
1.0
102
RTVSPost2010PropOp57
 70
     1
102
RTVSPropertyOp0
 70
     1
102
RTVSPropertyOp1
 70
     1
102
RTVSPropertyOp2
 70
     1
102
RTVSPropertyOp3
 70
     1
102
RTVSPropertyOp4
 70
     1
102
RTVSPropertyOp5
 70
     1
102
RTVSPropertyOp6
 70
     1
102
RTVSPropertyOp7
 70
     1
102
RTVSPropertyOp8
 70
     1
102
RTVSPropertyOp9
 70
     1
102
RTVSPropertyOp10
 70
     1
102
RTVSPropertyOp11
 70
     1
102
RTVSPropertyOp12
 70
     1
102
RTVSPropertyOp13
 70
     1
102
RTVSPropertyOp14
 70
     1
102
RTVSPropertyOp15
 70
     1
102
RTVSPropertyOp16
 70
     1
102
RTVSPropertyOp17
 70
     1
102
RTVSPropertyOp18
 70
     1
102
RTVSPropertyOp19
 70
     1
102
RTVSPropertyOp20
 70
     1
102
RTVSPropertyOp21
 70
     1
102
RTVSPropertyOp22
 70
     1
102
RTVSPropertyOp23
 70
     1
102
RTVSPropertyOp24
 70
     1
102
RTVSPropertyOp25
 70
     1
102
RTVSPropertyOp26
 70
     1
102
RTVSPropertyOp27
 70
     1
102
RTVSPropertyOp28
 70
     1
102
RTVSPropertyOp29
 70
     1
102
RTVSPropertyOp30
 70
     1
102
RTVSPropertyOp31
 70
     1
102
RTVSPropertyOp32
 70
     1
102
RTVSPropertyOp33
 70
     1
102
RTVSPropertyOp34
 70
     1
102
RTVSPropertyOp35
 70
     1
102
RTVSPropertyOp36
 70
     1
102
RTVSPropertyOp37
 70
     1
102
RTVSPropertyOp38
 70
     1
102
RTVSPropertyOp39
 70
     1
102
RTVSPropertyOp40
 70
     1
102
RTVSPropertyOp41
 70
     1
102
RTVSPropertyOp42
 70
     1
102
RTVSPropertyOp43
 70
     1
102
RTVSPropertyOp44
 70
     1
102
RTVSPropertyOp45
 70
     1
102
RTVSPropertyOp46
 70
     1
102
RTVSPropertyOp47
 70
     1
102
RTVSPropertyOp48
 70
     1
102
RTVSPropertyOp49
 70
     1
102
RTVSPropertyOp50
 70
     1
102
RTVSPropertyOp51
 70
     0
102
RTVSPropertyOp52
 70
     0
102
RTVSPropertyOp53
 70
     1
102
RTVSPropertyOp54
 70
     1
102
RTVSPropertyOp55
 70
     1
102
RTVSPropertyOp56
 70
     1
102
RTVSPropertyOp57
 70
     1
102
RTVSPropertyOp58
 70
     1
102
RTVSPropertyOp59
 70
     1
102
RTVSPropertyOp60
 70
     1
102
RTVSPropertyOp61
 70
     1
102
RTVSPropertyOp62
 70
     1
  0
XRECORD
  5
1BA17
102
{ACAD_REACTORS
330
1BA16
102
}
330
1BA16
100
AcDbXrecord
280
     1
102
RTVSPost2010Prop28
280
     0
102
RTVSPost2010PropOp28
 70
     1
102
RTVSPost2010Prop29
280
     1
102
RTVSPost2010PropOp29
 70
     1
102
RTVSPost2010Prop30
280
     1
102
RTVSPost2010PropOp30
 70
     1
102
RTVSPost2010Prop31
280
     0
102
RTVSPost2010PropOp31
 70
     1
102
RTVSPost2010Prop32
280
     0
102
RTVSPost2010PropOp32
 70
     1
102
RTVSPost2010Prop33
280
     0
102
RTVSPost2010PropOp33
 70
     1
102
RTVSPost2010Prop34
280
     0
102
RTVSPost2010PropOp34
 70
     1
102
RTVSPost2010Prop35
280
     0
102
RTVSPost2010PropOp35
 70
     1
102
RTVSPost2010Prop36
280
     0
102
RTVSPost2010PropOp36
 70
     1
102
RTVSPost2010Prop37
 90
       50
102
RTVSPost2010PropOp37
 70
     1
102
RTVSPost2010Prop38
140
0.0
102
RTVSPost2010PropOp38
 70
     1
102
RTVSPost2010Prop39
140
1.0
102
RTVSPost2010PropOp39
 70
     1
102
RTVSPost2010Prop40
 90
        0
102
RTVSPost2010PropOp40
 70
     1
102
RTVSPost2010Prop41ColorIndex
 90
       18
102
RTVSPost2010Prop41ColorRGB
 90
        0
102
RTVSPost2010PropOp41
 70
     1
102
RTVSPost2010Prop42
 90
       50
102
RTVSPost2010PropOp42
 70
     1
102
RTVSPost2010Prop43
 90
        3
102
RTVSPost2010PropOp43
 70
     1
102
RTVSPost2010Prop44ColorIndex
 90
        5
102
RTVSPost2010Prop44ColorRGB
 90
      255
102
RTVSPost2010PropOp44
 70
     1
102
RTVSPost2010Prop45
280
     0
102
RTVSPost2010PropOp45
 70
     1
102
RTVSPost2010Prop46
 90
       50
102
RTVSPost2010PropOp46
 70
     1
102
RTVSPost2010Prop47
 90
       50
102
RTVSPost2010PropOp47
 70
     1
102
RTVSPost2010Prop48
 90
       50
102
RTVSPost2010PropOp48
 70
     1
102
RTVSPost2010Prop49
280
     0
102
RTVSPost2010PropOp49
 70
     1
102
RTVSPost2010Prop50
 90
       50
102
RTVSPost2010PropOp50
 70
     1
102
RTVSPost2010Prop51ColorIndex
 90
      256
102
RTVSPost2010Prop51ColorRGB
 90
-16777216
102
RTVSPost2010PropOp51
 70
     0
102
RTVSPost2010Prop52
140
1.0
102
RTVSPost2010PropOp52
 70
     0
102
RTVSPost2010Prop53
 90
        2
102
RTVSPost2010PropOp53
 70
     1
102
RTVSPost2010Prop54
  1
strokes_ogs.tif
102
RTVSPost2010PropOp54
 70
     1
102
RTVSPost2010Prop55
280
     0
102
RTVSPost2010PropOp55
 70
     1
102
RTVSPost2010Prop56
140
1.0
102
RTVSPost2010PropOp56
 70
     1
102
RTVSPost2010Prop57
140
1.0
102
RTVSPost2010PropOp57
 70
     1
102
RTVSPropertyOp0
 70
     1
102
RTVSPropertyOp1
 70
     1
102
RTVSPropertyOp2
 70
     1
102
RTVSPropertyOp3
 70
     1
102
RTVSPropertyOp4
 70
     1
102
RTVSPropertyOp5
 70
     1
102
RTVSPropertyOp6
 70
     1
102
RTVSPropertyOp7
 70
     1
102
RTVSPropertyOp8
 70
     1
102
RTVSPropertyOp9
 70
     1
102
RTVSPropertyOp10
 70
     1
102
RTVSPropertyOp11
 70
     1
102
RTVSPropertyOp12
 70
     1
102
RTVSPropertyOp13
 70
     1
102
RTVSPropertyOp14
 70
     1
102
RTVSPropertyOp15
 70
     1
102
RTVSPropertyOp16
 70
     1
102
RTVSPropertyOp17
 70
     1
102
RTVSPropertyOp18
 70
     1
102
RTVSPropertyOp19
 70
     1
102
RTVSPropertyOp20
 70
     1
102
RTVSPropertyOp21
 70
     1
102
RTVSPropertyOp22
 70
     1
102
RTVSPropertyOp23
 70
     1
102
RTVSPropertyOp24
 70
     1
102
RTVSPropertyOp25
 70
     1
102
RTVSPropertyOp26
 70
     1
102
RTVSPropertyOp27
 70
     1
102
RTVSPropertyOp28
 70
     1
102
RTVSPropertyOp29
 70
     1
102
RTVSPropertyOp30
 70
     1
102
RTVSPropertyOp31
 70
     1
102
RTVSPropertyOp32
 70
     1
102
RTVSPropertyOp33
 70
     1
102
RTVSPropertyOp34
 70
     1
102
RTVSPropertyOp35
 70
     1
102
RTVSPropertyOp36
 70
     1
102
RTVSPropertyOp37
 70
     1
102
RTVSPropertyOp38
 70
     1
102
RTVSPropertyOp39
 70
     1
102
RTVSPropertyOp40
 70
     1
102
RTVSPropertyOp41
 70
     1
102
RTVSPropertyOp42
 70
     1
102
RTVSPropertyOp43
 70
     1
102
RTVSPropertyOp44
 70
     1
102
RTVSPropertyOp45
 70
     1
102
RTVSPropertyOp46
 70
     1
102
RTVSPropertyOp47
 70
     1
102
RTVSPropertyOp48
 70
     1
102
RTVSPropertyOp49
 70
     1
102
RTVSPropertyOp50
 70
     1
102
RTVSPropertyOp51
 70
     0
102
RTVSPropertyOp52
 70
     0
102
RTVSPropertyOp53
 70
     1
102
RTVSPropertyOp54
 70
     1
102
RTVSPropertyOp55
 70
     1
102
RTVSPropertyOp56
 70
     1
102
RTVSPropertyOp57
 70
     1
102
RTVSPropertyOp58
 70
     1
102
RTVSPropertyOp59
 70
     1
102
RTVSPropertyOp60
 70
     1
102
RTVSPropertyOp61
 70
     1
102
RTVSPropertyOp62
 70
     1
  0
ENDSEC
  0
EOF
