  0
SECTION
  2
HEADER
  9
$ACADVER
  1
AC1015
  9
$ACADMAINTVER
 70
    18
  9
$DWGCODEPAGE
  3
ANSI_1252
  9
$INSBASE
 10
0.0
 20
0.0
 30
0.0
  9
$EXTMIN
 10
-5.652464849004104
 20
-72.85871826538198
 30
-0.0015258207003583
  9
$EXTMAX
 10
17.7713017791641
 20
0.0135959268239958
 30
0.0000000349246037
  9
$LIMMIN
 10
0.0
 20
0.0
  9
$LIMMAX
 10
420.0
 20
297.0
  9
$ORTHOMODE
 70
     0
  9
$REGENMODE
 70
     1
  9
$FILLMODE
 70
     1
  9
$QTEXTMODE
 70
     0
  9
$MIRRTEXT
 70
     0
  9
$LTSCALE
 40
1.0
  9
$ATTMODE
 70
     1
  9
$TEXTSIZE
 40
2.5
  9
$TRACEWID
 40
1.0
  9
$TEXTSTYLE
  7
Standard
  9
$CLAYER
  8
0
  9
$CELTYPE
  6
ByLayer
  9
$CECOLOR
 62
   256
  9
$CELTSCALE
 40
1.0
  9
$DISPSILH
 70
     0
  9
$DIMSCALE
 40
1.0
  9
$DIMASZ
 40
2.5
  9
$DIMEXO
 40
0.625
  9
$DIMDLI
 40
3.75
  9
$DIMRND
 40
0.0
  9
$DIMDLE
 40
0.0
  9
$DIMEXE
 40
1.25
  9
$DIMTP
 40
0.0
  9
$DIMTM
 40
0.0
  9
$DIMTXT
 40
2.5
  9
$DIMCEN
 40
2.5
  9
$DIMTSZ
 40
0.0
  9
$DIMTOL
 70
     0
  9
$DIMLIM
 70
     0
  9
$DIMTIH
 70
     0
  9
$DIMTOH
 70
     0
  9
$DIMSE1
 70
     0
  9
$DIMSE2
 70
     0
  9
$DIMTAD
 70
     1
  9
$DIMZIN
 70
     8
  9
$DIMBLK
  1

  9
$DIMASO
 70
     1
  9
$DIMSHO
 70
     1
  9
$DIMPOST
  1

  9
$DIMAPOST
  1

  9
$DIMALT
 70
     0
  9
$DIMALTD
 70
     3
  9
$DIMALTF
 40
0.03937007874016
  9
$DIMLFAC
 40
1.0
  9
$DIMTOFL
 70
     1
  9
$DIMTVP
 40
0.0
  9
$DIMTIX
 70
     0
  9
$DIMSOXD
 70
     0
  9
$DIMSAH
 70
     0
  9
$DIMBLK1
  1

  9
$DIMBLK2
  1

  9
$DIMSTYLE
  2
ISO-25
  9
$DIMCLRD
 70
     0
  9
$DIMCLRE
 70
     0
  9
$DIMCLRT
 70
     0
  9
$DIMTFAC
 40
1.0
  9
$DIMGAP
 40
0.625
  9
$DIMJUST
 70
     0
  9
$DIMSD1
 70
     0
  9
$DIMSD2
 70
     0
  9
$DIMTOLJ
 70
     0
  9
$DIMTZIN
 70
     8
  9
$DIMALTZ
 70
     0
  9
$DIMALTTZ
 70
     0
  9
$DIMUPT
 70
     0
  9
$DIMDEC
 70
     2
  9
$DIMTDEC
 70
     2
  9
$DIMALTU
 70
     2
  9
$DIMALTTD
 70
     3
  9
$DIMTXSTY
  7
Standard
  9
$DIMAUNIT
 70
     0
  9
$DIMADEC
 70
     0
  9
$DIMALTRND
 40
0.0
  9
$DIMAZIN
 70
     0
  9
$DIMDSEP
 70
    44
  9
$DIMATFIT
 70
     3
  9
$DIMFRAC
 70
     0
  9
$DIMLDRBLK
  1

  9
$DIMLUNIT
 70
     2
  9
$DIMLWD
 70
    -2
  9
$DIMLWE
 70
    -2
  9
$DIMTMOVE
 70
     0
  9
$LUNITS
 70
     2
  9
$LUPREC
 70
     4
  9
$SKETCHINC
 40
1.0
  9
$FILLETRAD
 40
0.0
  9
$AUNITS
 70
     0
  9
$AUPREC
 70
     0
  9
$MENU
  1
.
  9
$ELEVATION
 40
0.0
  9
$PELEVATION
 40
0.0
  9
$THICKNESS
 40
0.0
  9
$LIMCHECK
 70
     0
  9
$CHAMFERA
 40
0.0
  9
$CHAMFERB
 40
0.0
  9
$CHAMFERC
 40
0.0
  9
$CHAMFERD
 40
0.0
  9
$SKPOLY
 70
     0
  9
$TDCREATE
 40
2460476.646099537
  9
$TDUCREATE
 40
2460476.354432870
  9
$TDUPDATE
 40
2460476.696192130
  9
$TDUUPDATE
 40
2460476.404525463
  9
$TDINDWG
 40
0.0066087963
  9
$TDUSRTIMER
 40
0.0066087963
  9
$USRTIMER
 70
     1
  9
$ANGBASE
 50
0.0
  9
$ANGDIR
 70
     0
  9
$PDMODE
 70
     0
  9
$PDSIZE
 40
0.0
  9
$PLINEWID
 40
0.0
  9
$SPLFRAME
 70
     0
  9
$SPLINETYPE
 70
     6
  9
$SPLINESEGS
 70
     8
  9
$HANDSEED
  5
1A13E
  9
$SURFTAB1
 70
     6
  9
$SURFTAB2
 70
     6
  9
$SURFTYPE
 70
     6
  9
$SURFU
 70
     6
  9
$SURFV
 70
     6
  9
$UCSBASE
  2

  9
$UCSNAME
  2

  9
$UCSORG
 10
0.0
 20
0.0
 30
0.0
  9
$UCSXDIR
 10
1.0
 20
0.0
 30
0.0
  9
$UCSYDIR
 10
0.0
 20
1.0
 30
0.0
  9
$UCSORTHOREF
  2

  9
$UCSORTHOVIEW
 70
     0
  9
$UCSORGTOP
 10
0.0
 20
0.0
 30
0.0
  9
$UCSORGBOTTOM
 10
0.0
 20
0.0
 30
0.0
  9
$UCSORGLEFT
 10
0.0
 20
0.0
 30
0.0
  9
$UCSORGRIGHT
 10
0.0
 20
0.0
 30
0.0
  9
$UCSORGFRONT
 10
0.0
 20
0.0
 30
0.0
  9
$UCSORGBACK
 10
0.0
 20
0.0
 30
0.0
  9
$PUCSBASE
  2

  9
$PUCSNAME
  2

  9
$PUCSORG
 10
0.0
 20
0.0
 30
0.0
  9
$PUCSXDIR
 10
1.0
 20
0.0
 30
0.0
  9
$PUCSYDIR
 10
0.0
 20
1.0
 30
0.0
  9
$PUCSORTHOREF
  2

  9
$PUCSORTHOVIEW
 70
     0
  9
$PUCSORGTOP
 10
0.0
 20
0.0
 30
0.0
  9
$PUCSORGBOTTOM
 10
0.0
 20
0.0
 30
0.0
  9
$PUCSORGLEFT
 10
0.0
 20
0.0
 30
0.0
  9
$PUCSORGRIGHT
 10
0.0
 20
0.0
 30
0.0
  9
$PUCSORGFRONT
 10
0.0
 20
0.0
 30
0.0
  9
$PUCSORGBACK
 10
0.0
 20
0.0
 30
0.0
  9
$USERI1
 70
     0
  9
$USERI2
 70
     0
  9
$USERI3
 70
     0
  9
$USERI4
 70
     0
  9
$USERI5
 70
     0
  9
$USERR1
 40
0.0
  9
$USERR2
 40
0.0
  9
$USERR3
 40
0.0
  9
$USERR4
 40
0.0
  9
$USERR5
 40
0.0
  9
$WORLDVIEW
 70
     1
  9
$SHADEDGE
 70
     3
  9
$SHADEDIF
 70
    70
  9
$TILEMODE
 70
     1
  9
$MAXACTVP
 70
    48
  9
$PINSBASE
 10
0.0
 20
0.0
 30
0.0
  9
$PLIMCHECK
 70
     0
  9
$PEXTMIN
 10
0.0
 20
0.0
 30
0.0
  9
$PEXTMAX
 10
0.0
 20
0.0
 30
0.0
  9
$PLIMMIN
 10
0.0
 20
0.0
  9
$PLIMMAX
 10
12.0
 20
9.0
  9
$UNITMODE
 70
     0
  9
$VISRETAIN
 70
     1
  9
$PLINEGEN
 70
     0
  9
$PSLTSCALE
 70
     1
  9
$TREEDEPTH
 70
  3020
  9
$CMLSTYLE
  2
Standard
  9
$CMLJUST
 70
     0
  9
$CMLSCALE
 40
20.0
  9
$PROXYGRAPHICS
 70
     1
  9
$MEASUREMENT
 70
     1
  9
$CELWEIGHT
370
    -1
  9
$ENDCAPS
280
     0
  9
$JOINSTYLE
280
     0
  9
$LWDISPLAY
290
     0
  9
$INSUNITS
 70
     4
  9
$HYPERLINKBASE
  1

  9
$STYLESHEET
  1

  9
$XEDIT
290
     1
  9
$CEPSNTYPE
380
     0
  9
$PSTYLEMODE
290
     1
  9
$FINGERPRINTGUID
  2
{F9DBAE76-D248-2544-A6C6-CA8F37DA12E5}
  9
$VERSIONGUID
  2
{F6C626A0-1D2A-2D43-BFCC-D279225BC68C}
  9
$EXTNAMES
290
     1
  9
$PSVPSCALE
 40
0.0
  9
$OLESTARTUP
290
     0
  0
ENDSEC
  0
SECTION
  2
CLASSES
  0
CLASS
  1
ACDBDICTIONARYWDFLT
  2
AcDbDictionaryWithDefault
  3
ObjectDBX Classes
 90
        0
280
     0
281
     0
  0
CLASS
  1
ACDBPLACEHOLDER
  2
AcDbPlaceHolder
  3
ObjectDBX Classes
 90
        0
280
     0
281
     0
  0
CLASS
  1
LAYOUT
  2
AcDbLayout
  3
ObjectDBX Classes
 90
        0
280
     0
281
     0
  0
CLASS
  1
DICTIONARYVAR
  2
AcDbDictionaryVar
  3
ObjectDBX Classes
 90
        0
280
     0
281
     0
  0
CLASS
  1
TABLESTYLE
  2
AcDbTableStyle
  3
ObjectDBX Classes
 90
     4095
280
     0
281
     0
  0
CLASS
  1
MATERIAL
  2
AcDbMaterial
  3
ObjectDBX Classes
 90
     1153
280
     0
281
     0
  0
CLASS
  1
VISUALSTYLE
  2
AcDbVisualStyle
  3
ObjectDBX Classes
 90
     4095
280
     0
281
     0
  0
CLASS
  1
SCALE
  2
AcDbScale
  3
ObjectDBX Classes
 90
     1153
280
     0
281
     0
  0
CLASS
  1
MLEADERSTYLE
  2
AcDbMLeaderStyle
  3
ACDB_MLEADERSTYLE_CLASS
 90
     4095
280
     0
281
     0
  0
CLASS
  1
CELLSTYLEMAP
  2
AcDbCellStyleMap
  3
ObjectDBX Classes
 90
     1152
280
     0
281
     0
  0
CLASS
  1
EXACXREFPANELOBJECT
  2
ExAcXREFPanelObject
  3
EXAC_ESW
 90
    33793
280
     0
281
     0
  0
CLASS
  1
NPOCOLLECTION
  2
AcDbImpNonPersistentObjectsCollection
  3
ObjectDBX Classes
 90
    33921
280
     0
281
     0
  0
CLASS
  1
LAYER_INDEX
  2
AcDbLayerIndex
  3
ObjectDBX Classes
 90
    32768
280
     0
281
     0
  0
CLASS
  1
SPATIAL_INDEX
  2
AcDbSpatialIndex
  3
ObjectDBX Classes
 90
    32768
280
     0
281
     0
  0
CLASS
  1
IDBUFFER
  2
AcDbIdBuffer
  3
ObjectDBX Classes
 90
    32768
280
     0
281
     0
  0
CLASS
  1
ACDBSECTIONVIEWSTYLE
  2
AcDbSectionViewStyle
  3
ObjectDBX Classes
 90
     1025
280
     0
281
     0
  0
CLASS
  1
ACDBDETAILVIEWSTYLE
  2
AcDbDetailViewStyle
  3
ObjectDBX Classes
 90
     1025
280
     0
281
     0
  0
CLASS
  1
XRECORD
  2
AcDbXrecord
  3
ObjectDBX Classes
 90
        0
280
     0
281
     0
  0
ENDSEC
  0
SECTION
  2
TABLES
  0
TABLE
  2
VPORT
  5
8
102
{ACAD_XDICTIONARY
360
1A04C
102
}
330
0
100
AcDbSymbolTable
 70
     1
  0
VPORT
  5
EA
330
8
100
AcDbSymbolTableRecord
100
AcDbViewportTableRecord
  2
*Active
 70
     0
 10
0.0
 20
0.0
 11
1.0
 21
1.0
 12
6.05941846508
 22
-36.42256116927899
 13
0.0
 23
0.0
 14
10.0
 24
10.0
 15
10.0
 25
10.0
 16
0.0
 26
0.0
 36
1.0
 17
0.0
 27
0.0
 37
0.0
 40
77.49310221265663
 41
0.9846153846153844
 42
50.0
 43
0.0
 44
0.0
 50
0.0
 51
0.0
 71
     0
 72
  1000
 73
     1
 74
     3
 75
     0
 76
     1
 77
     0
 78
     0
281
     0
 65
     1
110
0.0
120
0.0
130
0.0
111
1.0
121
0.0
131
0.0
112
0.0
122
1.0
132
0.0
 79
     0
146
0.0
1001
ACAD_NAV_VCDISPLAY
1070
     3
  0
ENDTAB
  0
TABLE
  2
LTYPE
  5
5
330
0
100
AcDbSymbolTable
 70
     1
  0
LTYPE
  5
14
330
5
100
AcDbSymbolTableRecord
100
AcDbLinetypeTableRecord
  2
ByBlock
 70
     0
  3

 72
    65
 73
     0
 40
0.0
  0
LTYPE
  5
15
330
5
100
AcDbSymbolTableRecord
100
AcDbLinetypeTableRecord
  2
ByLayer
 70
     0
  3

 72
    65
 73
     0
 40
0.0
  0
LTYPE
  5
16
330
5
100
AcDbSymbolTableRecord
100
AcDbLinetypeTableRecord
  2
Continuous
 70
     0
  3
Solid line
 72
    65
 73
     0
 40
0.0
  0
ENDTAB
  0
TABLE
  2
LAYER
  5
2
102
{ACAD_XDICTIONARY
360
1FF
102
}
330
0
100
AcDbSymbolTable
 70
     1
  0
LAYER
  5
10
102
{ACAD_XDICTIONARY
360
13C
102
}
330
2
100
AcDbSymbolTableRecord
100
AcDbLayerTableRecord
  2
0
 70
     0
 62
     7
  6
Continuous
370
    -3
390
F
  0
ENDTAB
  0
TABLE
  2
STYLE
  5
3
330
0
100
AcDbSymbolTable
 70
     1
  0
STYLE
  5
11
330
3
100
AcDbSymbolTableRecord
100
AcDbTextStyleTableRecord
  2
Standard
 70
     0
 40
0.0
 41
1.0
 50
0.0
 71
     0
 42
2.5
  3
arial_1.ttf
  4

1001
ACAD
1000
Arial
1071
       34
  0
ENDTAB
  0
TABLE
  2
VIEW
  5
6
330
0
100
AcDbSymbolTable
 70
     0
  0
ENDTAB
  0
TABLE
  2
UCS
  5
7
330
0
100
AcDbSymbolTable
 70
     0
  0
ENDTAB
  0
TABLE
  2
APPID
  5
9
330
0
100
AcDbSymbolTable
 70
     8
  0
APPID
  5
12
330
9
100
AcDbSymbolTableRecord
100
AcDbRegAppTableRecord
  2
ACAD
 70
     0
  0
APPID
  5
9E
330
9
100
AcDbSymbolTableRecord
100
AcDbRegAppTableRecord
  2
ACAD_PSEXT
 70
     0
  0
APPID
  5
133
330
9
100
AcDbSymbolTableRecord
100
AcDbRegAppTableRecord
  2
AcadAnnoPO
 70
     0
  0
APPID
  5
134
330
9
100
AcDbSymbolTableRecord
100
AcDbRegAppTableRecord
  2
AcadAnnotative
 70
     0
  0
APPID
  5
135
330
9
100
AcDbSymbolTableRecord
100
AcDbRegAppTableRecord
  2
ACAD_DSTYLE_DIMJAG
 70
     0
  0
APPID
  5
136
330
9
100
AcDbSymbolTableRecord
100
AcDbRegAppTableRecord
  2
ACAD_DSTYLE_DIMTALN
 70
     0
  0
APPID
  5
165
330
9
100
AcDbSymbolTableRecord
100
AcDbRegAppTableRecord
  2
ACAD_MLEADERVER
 70
     0
  0
APPID
  5
217
330
9
100
AcDbSymbolTableRecord
100
AcDbRegAppTableRecord
  2
ACAD_NAV_VCDISPLAY
 70
     0
  0
ENDTAB
  0
TABLE
  2
DIMSTYLE
  5
A
330
0
100
AcDbSymbolTable
 70
     1
100
AcDbDimStyleTable
 71
     0
  0
DIMSTYLE
105
27
330
A
100
AcDbSymbolTableRecord
100
AcDbDimStyleTableRecord
  2
ISO-25
 70
     0
 41
2.5
 42
0.625
 43
3.75
 44
1.25
 73
     0
 74
     0
 77
     1
 78
     8
140
2.5
141
2.5
143
0.03937007874016
147
0.625
171
     3
172
     1
271
     2
272
     2
274
     3
278
    44
283
     0
284
     8
340
11
  0
ENDTAB
  0
TABLE
  2
BLOCK_RECORD
  5
1
330
0
100
AcDbSymbolTable
 70
     4
  0
BLOCK_RECORD
  5
1F
102
{ACAD_XDICTIONARY
360
1CE
102
}
330
1
100
AcDbSymbolTableRecord
100
AcDbBlockTableRecord
  2
*Model_Space
340
22
  0
BLOCK_RECORD
  5
D2
102
{ACAD_XDICTIONARY
360
19FFF
102
}
330
1
100
AcDbSymbolTableRecord
100
AcDbBlockTableRecord
  2
*Paper_Space
340
D3
  0
BLOCK_RECORD
  5
D6
102
{ACAD_XDICTIONARY
360
1A001
102
}
330
1
100
AcDbSymbolTableRecord
100
AcDbBlockTableRecord
  2
*Paper_Space0
340
D7
  0
BLOCK_RECORD
  5
19D54
330
1
100
AcDbSymbolTableRecord
100
AcDbBlockTableRecord
  2
TTFA442X35T-20-Front
340
0
102
{BLKREFS
331
19FF8
102
}
  0
BLOCK_RECORD
  5
19EA6
330
1
100
AcDbSymbolTableRecord
100
AcDbBlockTableRecord
  2
TTFA442X35T-20-Top
340
0
102
{BLKREFS
331
19FF9
102
}
  0
BLOCK_RECORD
  5
19F48
330
1
100
AcDbSymbolTableRecord
100
AcDbBlockTableRecord
  2
TTFA442X35T-20-ISO
340
0
102
{BLKREFS
331
19FFA
102
}
  0
ENDTAB
  0
ENDSEC
  0
SECTION
  2
BLOCKS
  0
BLOCK
  5
20
330
1F
100
AcDbEntity
  8
0
100
AcDbBlockBegin
  2
*Model_Space
 70
     0
 10
0.0
 20
0.0
 30
0.0
  3
*Model_Space
  1

  0
ENDBLK
  5
21
330
1F
100
AcDbEntity
  8
0
100
AcDbBlockEnd
  0
BLOCK
  5
D4
330
D2
100
AcDbEntity
 67
     1
  8
0
100
AcDbBlockBegin
  2
*Paper_Space
 70
     0
 10
0.0
 20
0.0
 30
0.0
  3
*Paper_Space
  1

  0
ENDBLK
  5
D5
330
D2
100
AcDbEntity
 67
     1
  8
0
100
AcDbBlockEnd
  0
BLOCK
  5
D8
330
D6
100
AcDbEntity
 67
     1
  8
0
100
AcDbBlockBegin
  2
*Paper_Space0
 70
     0
 10
0.0
 20
0.0
 30
0.0
  3
*Paper_Space0
  1

  0
ENDBLK
  5
D9
330
D6
100
AcDbEntity
 67
     1
  8
0
100
AcDbBlockEnd
  0
BLOCK
  5
19D55
330
19D54
100
AcDbEntity
  8
0
100
AcDbBlockBegin
  2
TTFA442X35T-20-Front
 70
     0
 10
0.0
 20
0.0
 30
0.0
  3
TTFA442X35T-20-Front
  1

  0
LINE
  5
19D57
330
19D54
100
AcDbEntity
  8
0
100
AcDbLine
 10
3.5
 20
0.0
 30
0.0
 11
-3.500000000000001
 21
0.0
 31
0.0
  0
LINE
  5
19D58
330
19D54
100
AcDbEntity
  8
0
100
AcDbLine
 10
1.455377343266596
 20
-3.795897994836174
 30
0.0
 11
0.3631484389423506
 21
-3.795897994836174
 31
0.0
  0
LINE
  5
19D59
330
19D54
100
AcDbEntity
  8
0
100
AcDbLine
 10
3.483536766931139
 20
-0.5
 30
0.0
 11
0.3390746133802247
 21
-0.4999999999999993
 31
0.0
  0
LINE
  5
19D5A
330
19D54
100
AcDbEntity
  8
0
100
AcDbLine
 10
-0.339074613380223
 20
-0.4999999999999993
 30
0.0
 11
-3.483536766931139
 21
-0.5
 31
0.0
  0
LINE
  5
19D5B
330
19D54
100
AcDbEntity
  8
0
100
AcDbLine
 10
-0.3631484389423514
 20
-3.795897994836174
 30
0.0
 11
-1.455377343266597
 21
-3.795897994836174
 31
0.0
  0
LINE
  5
19D5C
330
19D54
100
AcDbEntity
  8
0
100
AcDbLine
 10
1.5
 20
-14.8
 30
0.0
 11
-1.5
 21
-14.8
 31
0.0
  0
LINE
  5
19D5D
330
19D54
100
AcDbEntity
  8
0
100
AcDbLine
 10
-0.7207913581072731
 20
-28.61029585960745
 30
0.0
 11
-1.299999999999998
 21
-28.61029585960745
 31
0.0
  0
LINE
  5
19D5E
330
19D54
100
AcDbEntity
  8
0
100
AcDbLine
 10
1.299999999999998
 20
-28.61029585960745
 30
0.0
 11
0.858108984992249
 21
-28.61029585960745
 31
0.0
  0
LINE
  5
19D5F
330
19D54
100
AcDbEntity
  8
0
100
AcDbLine
 10
1.299999999999999
 20
-15.0
 30
0.0
 11
-1.3
 21
-15.0
 31
0.0
  0
LINE
  5
19D60
330
19D54
100
AcDbEntity
  8
0
100
AcDbLine
 10
-3.500000000000001
 20
-1.126477935952967
 30
0.0
 11
-3.500000000000001
 21
0.0
 31
0.0
  0
LINE
  5
19D61
330
19D54
100
AcDbEntity
  8
0
100
AcDbLine
 10
3.5
 20
-1.126477935952967
 30
0.0
 11
3.5
 21
0.0
 31
0.0
  0
LINE
  5
19D62
330
19D54
100
AcDbEntity
  8
0
100
AcDbLine
 10
-1.500000000000001
 20
-14.8
 30
0.0
 11
-1.500000000000001
 21
-3.795897994836172
 31
0.0
  0
LINE
  5
19D63
330
19D54
100
AcDbEntity
  8
0
100
AcDbLine
 10
1.500000000000001
 20
-14.8
 30
0.0
 11
1.500000000000001
 21
-3.795897994836172
 31
0.0
  0
LINE
  5
19D64
330
19D54
100
AcDbEntity
  8
0
100
AcDbLine
 10
0.0
 20
-35.0
 30
0.0
 11
-0.476961976497301
 21
-32.65565698766568
 31
0.0
  0
LINE
  5
19D65
330
19D54
100
AcDbEntity
  8
0
100
AcDbLine
 10
-1.236044027609763
 20
-28.92464950698031
 30
0.0
 11
-1.3
 21
-28.61029585960744
 31
0.0
  0
LINE
  5
19D66
330
19D54
100
AcDbEntity
  8
0
100
AcDbLine
 10
1.299999999999998
 20
-28.61029585960744
 30
0.0
 11
1.299999999999998
 21
-28.35604166211372
 31
0.0
  0
LINE
  5
19D67
330
19D54
100
AcDbEntity
  8
0
100
AcDbLine
 10
-0.6379202409701157
 20
-31.8645218423331
 30
0.0
 11
-1.073428185646935
 21
-29.72393190596747
 31
0.0
  0
LINE
  5
19D68
330
19D54
100
AcDbEntity
  8
0
100
AcDbLine
 10
1.077614455980506
 20
-29.70335572990345
 30
0.0
 11
1.299999999999999
 21
-28.61029585960744
 31
0.0
  0
LINE
  5
19D69
330
19D54
100
AcDbEntity
  8
0
100
AcDbLine
 10
-1.299999999999999
 20
-28.61029585960744
 30
0.0
 11
-1.299999999999999
 21
-26.82217607495914
 31
0.0
  0
LINE
  5
19D6A
330
19D54
100
AcDbEntity
  8
0
100
AcDbLine
 10
-1.299999999999999
 20
-25.76448651058164
 30
0.0
 11
-1.299999999999999
 21
-23.82217607495915
 31
0.0
  0
LINE
  5
19D6B
330
19D54
100
AcDbEntity
  8
0
100
AcDbLine
 10
-1.299999999999999
 20
-22.76448651058164
 30
0.0
 11
-1.299999999999999
 21
-20.82217607495914
 31
0.0
  0
LINE
  5
19D6C
330
19D54
100
AcDbEntity
  8
0
100
AcDbLine
 10
-1.299999999999999
 20
-19.76448651058163
 30
0.0
 11
-1.299999999999999
 21
-17.82217607495914
 31
0.0
  0
LINE
  5
19D6D
330
19D54
100
AcDbEntity
  8
0
100
AcDbLine
 10
-1.299999999999999
 20
-16.76448651058163
 30
0.0
 11
-1.299999999999999
 21
-15.0
 31
0.0
  0
LINE
  5
19D6E
330
19D54
100
AcDbEntity
  8
0
100
AcDbLine
 10
1.299999999999998
 20
-27.47476746658882
 30
0.0
 11
1.299999999999998
 21
-25.45610520863326
 31
0.0
  0
LINE
  5
19D6F
330
19D54
100
AcDbEntity
  8
0
100
AcDbLine
 10
1.299999999999998
 20
-24.39841564425574
 30
0.0
 11
1.299999999999998
 21
-22.45610520863326
 31
0.0
  0
LINE
  5
19D70
330
19D54
100
AcDbEntity
  8
0
100
AcDbLine
 10
1.299999999999998
 20
-21.39841564425574
 30
0.0
 11
1.299999999999998
 21
-19.45610520863326
 31
0.0
  0
LINE
  5
19D71
330
19D54
100
AcDbEntity
  8
0
100
AcDbLine
 10
1.299999999999998
 20
-18.39841564425574
 30
0.0
 11
1.299999999999998
 21
-16.41925558780049
 31
0.0
  0
LINE
  5
19D72
330
19D54
100
AcDbEntity
  8
0
100
AcDbLine
 10
1.299999999999998
 20
-15.51305672547325
 30
0.0
 11
1.299999999999998
 21
-15.0
 31
0.0
  0
LINE
  5
19D73
330
19D54
100
AcDbEntity
  8
0
100
AcDbLine
 10
-1.3
 20
-15.0
 30
0.0
 11
-1.5
 21
-14.8
 31
0.0
  0
LINE
  5
19D74
330
19D54
100
AcDbEntity
  8
0
100
AcDbLine
 10
1.299999999999999
 20
-15.0
 30
0.0
 11
1.5
 21
-14.8
 31
0.0
  0
SPLINE
  5
19D75
330
19D54
100
AcDbEntity
  8
0
100
AcDbSpline
210
0.0
220
0.0
230
1.0
 70
     8
 71
     3
 72
    17
 73
    13
 74
     0
 42
0.000000001
 43
0.0000000001
 40
1.351427378112068
 40
1.351427378112068
 40
1.351427378112068
 40
1.351427378112068
 40
2.485818540050955
 40
2.485818540050955
 40
2.485818540050955
 40
3.654166695700573
 40
3.654166695700573
 40
3.654166695700573
 40
4.820054443680173
 40
4.820054443680173
 40
4.820054443680173
 40
5.131350834409754
 40
5.131350834409754
 40
5.131350834409754
 40
5.131350834409754
 10
1.938623515616531
 20
-27.75555490197622
 30
0.0
 10
2.070990775082937
 20
-27.93609886279855
 30
0.0
 10
1.738964458809384
 20
-28.11664282362088
 30
0.0
 10
1.152909404970246
 20
-28.29718678444321
 30
0.0
 10
0.5493113126757101
 20
-28.48313516866715
 30
0.0
 10
-0.2867664354492868
 20
-28.66908355289109
 30
0.0
 10
-0.879010986362984
 20
-28.85503193711502
 30
0.0
 10
-1.470008337947826
 20
-29.04058873529625
 30
0.0
 10
-1.787670938406163
 20
-29.22614553347748
 30
0.0
 10
-1.684389969709307
 20
-29.41170233165871
 30
0.0
 10
-1.656813564654788
 20
-29.46124669100999
 30
0.0
 10
-1.600114374177957
 20
-29.51079105036127
 30
0.0
 10
-1.520353272528502
 20
-29.56033540971255
 30
0.0
  0
SPLINE
  5
19D76
330
19D54
100
AcDbEntity
  8
0
100
AcDbSpline
210
0.0
220
0.0
230
1.0
 70
     8
 71
     3
 72
    18
 73
    14
 74
     0
 42
0.000000001
 43
0.0000000001
 40
0.0
 40
0.0
 40
0.0
 40
0.0
 40
0.0591303055810818
 40
0.0591303055810818
 40
0.1182606111621634
 40
0.1182606111621634
 40
0.177390916743245
 40
0.177390916743245
 40
0.2365212223243266
 40
0.2365212223243266
 40
0.2956515279054082
 40
0.2956515279054082
 40
0.3038006500613747
 40
0.3038006500613747
 40
0.3038006500613747
 40
0.3038006500613747
 10
-0.7207913581072729
 20
-28.61029585960745
 30
0.0
 10
-0.5687392796061399
 20
-28.53635930330392
 30
0.0
 10
-0.3970249124278901
 20
-28.46323208420434
 30
0.0
 10
-0.0367299840640619
 20
-28.31535897159728
 30
0.0
 10
0.1478361802866645
 20
-28.2422317524977
 30
0.0
 10
0.5016666498102364
 20
-28.09435863989065
 30
0.0
 10
0.666988584982538
 20
-28.02123142079107
 30
0.0
 10
0.9528235338185703
 20
-27.87335830818401
 30
0.0
 10
1.070151781826264
 20
-27.80023108908443
 30
0.0
 10
1.238284558259244
 20
-27.65235797647739
 30
0.0
 10
1.287215755609312
 20
-27.5792307573778
 30
0.0
 10
1.299272251633782
 20
-27.49510453567025
 30
0.0
 10
1.299999981955932
 20
-27.48493024228527
 30
0.0
 10
1.299999905833076
 20
-27.47476708388859
 30
0.0
  0
SPLINE
  5
19D77
330
19D54
100
AcDbEntity
  8
0
100
AcDbSpline
210
0.0
220
0.0
230
1.0
 70
     8
 71
     3
 72
     8
 73
     4
 74
     0
 42
0.000000001
 43
0.0000000001
 40
0.4996745139646612
 40
0.4996745139646612
 40
0.4996745139646612
 40
0.4996745139646612
 40
0.5486885212302037
 40
0.5486885212302037
 40
0.5486885212302037
 40
0.5486885212302037
 10
-1.027103982389079
 20
-28.7793460161866
 30
0.0
 10
-0.9468427858723361
 20
-28.7222385780376
 30
0.0
 10
-0.842993095189124
 20
-28.66621622461017
 30
0.0
 10
-0.7207913581072722
 20
-28.61029585960745
 30
0.0
  0
SPLINE
  5
19D78
330
19D54
100
AcDbEntity
  8
0
100
AcDbSpline
210
0.0
220
0.0
230
1.0
 70
     8
 71
     3
 72
     8
 73
     4
 74
     0
 42
0.000000001
 43
0.0000000001
 40
0.28705347944431
 40
0.28705347944431
 40
0.28705347944431
 40
0.28705347944431
 40
0.3324886257930784
 40
0.3324886257930784
 40
0.3324886257930784
 40
0.3324886257930784
 10
1.128736155595014
 20
-28.46845098012427
 30
0.0
 10
1.057556822183985
 20
-28.51578225859359
 30
0.0
 10
0.966150221214133
 20
-28.56284888395017
 30
0.0
 10
0.8581089849922502
 20
-28.61029585960745
 30
0.0
  0
SPLINE
  5
19D79
330
19D54
100
AcDbEntity
  8
0
100
AcDbSpline
210
0.0
220
0.0
230
1.0
 70
     8
 71
     3
 72
     8
 73
     4
 74
     0
 42
0.000000001
 43
0.0000000001
 40
7.958032867806182
 40
7.958032867806182
 40
7.958032867806182
 40
7.958032867806182
 40
8.377580409572777
 40
8.377580409572777
 40
8.377580409572777
 40
8.377580409572777
 10
1.422279601931
 20
-30.90997666420483
 30
0.0
 10
1.389798099178265
 20
-30.97674972933904
 30
0.0
 10
1.315558531777022
 20
-31.04352279447324
 30
0.0
 10
1.207838769282767
 20
-31.11029585960745
 30
0.0
  0
SPLINE
  5
19D7A
330
19D54
100
AcDbEntity
  8
0
100
AcDbSpline
210
0.0
220
0.0
230
1.0
 70
     8
 71
     3
 72
     8
 73
     4
 74
     0
 42
0.000000001
 43
0.0000000001
 40
0.0
 40
0.0
 40
0.0
 40
0.0
 40
0.0388480225948279
 40
0.0388480225948279
 40
0.0388480225948279
 40
0.0388480225948279
 10
0.7402682263481858
 20
-30.79858216431773
 30
0.0
 10
0.8076655053541779
 20
-30.736410427361
 30
0.0
 10
0.8562978479515146
 20
-30.67594800735329
 30
0.0
 10
0.8837812399794922
 20
-30.61588251955804
 30
0.0
  0
SPLINE
  5
19D7B
330
19D54
100
AcDbEntity
  8
0
100
AcDbSpline
210
0.0
220
0.0
230
1.0
 70
     8
 71
     3
 72
    18
 73
    14
 74
     0
 42
0.000000001
 43
0.0000000001
 40
0.0
 40
0.0
 40
0.0
 40
0.0
 40
0.0569110810259638
 40
0.0569110810259638
 40
0.1124768502393554
 40
0.1124768502393554
 40
0.1667057075262738
 40
0.1667057075262738
 40
0.2196071262299649
 40
0.2196071262299649
 40
0.2711918369008038
 40
0.2711918369008038
 40
0.2964108849542837
 40
0.2964108849542837
 40
0.2964108849542837
 40
0.2964108849542837
 10
0.8581089849922499
 20
-28.61029585960745
 30
0.0
 10
0.7160655855536447
 20
-28.67655007276677
 30
0.0
 10
0.5538570623367871
 20
-28.74294467901514
 30
0.0
 10
0.2133196191154768
 20
-28.87749003847408
 30
0.0
 10
0.0391722443053291
 20
-28.94411602518132
 30
0.0
 10
-0.2945345763152276
 20
-29.07916833120486
 30
0.0
 10
-0.4506656076794903
 20
-29.14604847387741
 30
0.0
 10
-0.7214788424102849
 20
-29.28165876131384
 30
0.0
 10
-0.8340563997559918
 20
-29.34881898999759
 30
0.0
 10
-0.9992355381672823
 20
-29.48504554815541
 30
0.0
 10
-1.051381018897372
 20
-29.55251552420318
 30
0.0
 10
-1.079312842066816
 20
-29.655742247479
 30
0.0
 10
-1.08039229629739
 20
-29.68969672984727
 30
0.0
 10
-1.073429360218103
 20
-29.72392253137006
 30
0.0
  0
SPLINE
  5
19D7C
330
19D54
100
AcDbEntity
  8
0
100
AcDbSpline
210
0.0
220
0.0
230
1.0
 70
     8
 71
     3
 72
     8
 73
     4
 74
     0
 42
0.000000001
 43
0.0000000001
 40
0.0
 40
0.0
 40
0.0
 40
0.0
 40
0.0629791854309202
 40
0.0629791854309202
 40
0.0629791854309202
 40
0.0629791854309202
 10
-1.545529170000667
 20
-29.1303936077047
 30
0.0
 10
-1.370151651756359
 20
-29.01614962797344
 30
0.0
 10
-1.196287362728793
 20
-28.89970766419357
 30
0.0
 10
-1.027103244180249
 20
-28.77934731994058
 30
0.0
  0
SPLINE
  5
19D7D
330
19D54
100
AcDbEntity
  8
0
100
AcDbSpline
210
0.0
220
0.0
230
1.0
 70
     8
 71
     3
 72
     8
 73
     4
 74
     0
 42
0.000000001
 43
0.0000000001
 40
0.0
 40
0.0
 40
0.0
 40
0.0
 40
0.0144295704014083
 40
0.0144295704014083
 40
0.0144295704014083
 40
0.0144295704014083
 10
1.234172743127448
 20
-31.09353901830414
 30
0.0
 10
1.194044424714604
 20
-31.11977587510847
 30
0.0
 10
1.154042104088828
 20
-31.14616030307008
 30
0.0
 10
1.114205117088029
 20
-31.17271829440394
 30
0.0
  0
SPLINE
  5
19D7E
330
19D54
100
AcDbEntity
  8
0
100
AcDbSpline
210
0.0
220
0.0
230
1.0
 70
     8
 71
     3
 72
     8
 73
     4
 74
     0
 42
0.000000001
 43
0.0000000001
 40
0.0
 40
0.0
 40
0.0
 40
0.0
 40
0.080758493512441
 40
0.080758493512441
 40
0.080758493512441
 40
0.080758493512441
 10
1.808497230171397
 20
-28.0351428141756
 30
0.0
 10
1.579695779177472
 20
-28.17662214533046
 30
0.0
 10
1.351913838493426
 20
-28.32004830060085
 30
0.0
 10
1.128736180807745
 20
-28.46845072431396
 30
0.0
  0
SPLINE
  5
19D7F
330
19D54
100
AcDbEntity
  8
0
100
AcDbSpline
210
0.0
220
0.0
230
1.0
 70
     8
 71
     3
 72
     8
 73
     4
 74
     0
 42
0.000000001
 43
0.0000000001
 40
0.0280827899050333
 40
0.0280827899050333
 40
0.0280827899050333
 40
0.0280827899050333
 40
0.0855452266943987
 40
0.0855452266943987
 40
0.0855452266943987
 40
0.0855452266943987
 10
-1.043116982959644
 20
-29.87291622697613
 30
0.0
 10
-1.200911308518576
 20
-29.7661494409905
 30
0.0
 10
-1.362046549058433
 20
-29.66252142186851
 30
0.0
 10
-1.523730242835355
 20
-29.56033540971255
 30
0.0
  0
SPLINE
  5
19D80
330
19D54
100
AcDbEntity
  8
0
100
AcDbSpline
210
0.0
220
0.0
230
1.0
 70
     8
 71
     3
 72
    10
 73
     6
 74
     0
 42
0.000000001
 43
0.0000000001
 40
-0.111699001994946
 40
-0.111699001994946
 40
-0.111699001994946
 40
-0.111699001994946
 40
-0.0587539721768738
 40
-0.0587539721768738
 40
-0.0326200543750041
 40
-0.0326200543750041
 40
-0.0326200543750041
 40
-0.0326200543750041
 10
1.938623515616532
 20
-27.75555490197622
 30
0.0
 10
1.79463252462755
 20
-27.66258992130799
 30
0.0
 10
1.649934757998372
 20
-27.56733157400928
 30
0.0
 10
1.438158761777584
 20
-27.4235303783355
 30
0.0
 10
1.368924536822143
 20
-27.37579286154614
 30
0.0
 10
1.299999890133438
 20
-27.32739620088246
 30
0.0
  0
SPLINE
  5
19D81
330
19D54
100
AcDbEntity
  8
0
100
AcDbSpline
210
0.0
220
0.0
230
1.0
 70
     8
 71
     3
 72
     8
 73
     4
 74
     0
 42
0.000000001
 43
0.0000000001
 40
1.932202674377868
 40
1.932202674377868
 40
1.932202674377868
 40
1.932202674377868
 40
2.019685653931935
 40
2.019685653931935
 40
2.019685653931935
 40
2.019685653931935
 10
1.07759701568212
 20
-29.7033684253514
 30
0.0
 10
1.016220585756339
 20
-30.00505073796582
 30
0.0
 10
0.950994177465607
 20
-30.30973032050282
 30
0.0
 10
0.8837812399794922
 20
-30.61588251955802
 30
0.0
  0
SPLINE
  5
19D82
330
19D54
100
AcDbEntity
  8
0
100
AcDbSpline
210
0.0
220
0.0
230
1.0
 70
     8
 71
     3
 72
    10
 73
     6
 74
     0
 42
0.000000001
 43
0.0000000001
 40
-0.090092103804163
 40
-0.090092103804163
 40
-0.090092103804163
 40
-0.090092103804163
 40
-0.0424526227277084
 40
-0.0424526227277084
 40
-0.0274778096442232
 40
-0.0274778096442232
 40
-0.0274778096442232
 40
-0.0274778096442232
 10
1.422279601930999
 20
-30.90997666420483
 30
0.0
 10
1.29010323397052
 20
-30.83642155210592
 30
0.0
 10
1.151008519604199
 20
-30.75957462936612
 30
0.0
 10
0.979063629154594
 20
-30.66664911171752
 30
0.0
 10
0.9324680621139616
 20
-30.64163180210082
 30
0.0
 10
0.8837812399794922
 20
-30.61588251955802
 30
0.0
  0
SPLINE
  5
19D83
330
19D54
100
AcDbEntity
  8
0
100
AcDbSpline
210
0.0
220
0.0
230
1.0
 70
     8
 71
     3
 72
     8
 73
     4
 74
     0
 42
0.000000001
 43
0.0000000001
 40
2.099838055223543
 40
2.099838055223543
 40
2.099838055223543
 40
2.099838055223543
 40
2.443592656319521
 40
2.443592656319521
 40
2.443592656319521
 40
2.443592656319521
 10
0.6955532740123837
 20
-31.45987183529904
 30
0.0
 10
0.4232674335498737
 20
-32.66837272576657
 30
0.0
 10
0.1409316767693178
 20
-33.87715458019658
 30
0.0
 10
-0.0000000000000003
 20
-35.0
 30
0.0
  0
LINE
  5
19D84
330
19D54
100
AcDbEntity
  8
0
100
AcDbLine
 10
1.455377343266597
 20
-3.795897994836174
 30
0.0
 11
1.880156143748683
 21
-3.795897994836174
 31
0.0
  0
LINE
  5
19D85
330
19D54
100
AcDbEntity
  8
0
100
AcDbLine
 10
0.0
 20
-3.795897994836174
 30
0.0
 11
0.3631484389423507
 21
-3.795897994836174
 31
0.0
  0
LINE
  5
19D86
330
19D54
100
AcDbEntity
  8
0
100
AcDbLine
 10
-1.880156143748684
 20
-3.795897994836174
 30
0.0
 11
-1.455377343266597
 21
-3.795897994836174
 31
0.0
  0
LINE
  5
19D87
330
19D54
100
AcDbEntity
  8
0
100
AcDbLine
 10
-0.3631484389423514
 20
-3.795897994836174
 30
0.0
 11
0.0
 21
-3.795897994836174
 31
0.0
  0
SPLINE
  5
19D88
330
19D54
100
AcDbEntity
  8
0
100
AcDbSpline
210
0.0
220
0.0
230
1.0
 70
    12
 71
     2
 72
     6
 73
     3
 74
     0
 42
0.000000001
 43
0.0000000001
 40
0.0
 40
0.0
 40
0.0
 40
0.3870045666688413
 40
0.3870045666688413
 40
0.3870045666688413
 10
0.3390746133802251
 20
-0.4999999999999994
 30
0.0
 41
1.0
 10
0.3455627402188755
 20
-2.926135268864587
 30
0.0
 41
1.126874713456363
 10
0.3631484389423514
 20
-3.795897994836174
 30
0.0
 41
1.0
  0
ELLIPSE
  5
19D89
330
19D54
100
AcDbEntity
  8
0
100
AcDbEllipse
 10
-0.0000000000000003
 20
-6.894299426916278
 30
0.0
 11
-2.822085883389688
 21
-8.851546759612384
 31
0.0
210
0.0
220
0.0
230
1.0
 40
0.2338828441702473
 41
3.982449305349748
 42
4.079479951042188
  0
LINE
  5
19D8A
330
19D54
100
AcDbEntity
  8
0
100
AcDbLine
 10
0.0
 20
-1.126477935952966
 30
0.0
 11
0.0
 21
-3.795897994836174
 31
0.0
  0
SPLINE
  5
19D8B
330
19D54
100
AcDbEntity
  8
0
100
AcDbSpline
210
0.0
220
0.0
230
1.0
 70
    12
 71
     2
 72
     6
 73
     3
 74
     0
 42
0.000000001
 43
0.0000000001
 40
0.0
 40
0.0
 40
0.0
 40
0.3870045666688413
 40
0.3870045666688413
 40
0.3870045666688413
 10
1.455377343266597
 20
-3.795897994836174
 30
0.0
 41
1.0
 10
2.003732510604882
 20
-2.926135268864555
 30
0.0
 41
1.126874713456468
 10
3.483536766931138
 20
-0.4999999999999999
 30
0.0
 41
1.0
  0
LINE
  5
19D8C
330
19D54
100
AcDbEntity
  8
0
100
AcDbLine
 10
3.5
 20
-1.126477935952967
 30
0.0
 11
1.880156143748683
 21
-3.795897994836174
 31
0.0
  0
ELLIPSE
  5
19D8D
330
19D54
100
AcDbEntity
  8
0
100
AcDbEllipse
 10
-0.0000000000000003
 20
-6.89429942691628
 30
0.0
 11
-2.474873734152916
 21
-8.849092731137776
 31
0.0
210
0.0
220
0.0
230
1.0
 40
0.2796754208987378
 41
2.356194490192345
 42
2.453225135884785
  0
ELLIPSE
  5
19D8E
330
19D54
100
AcDbEntity
  8
0
100
AcDbEllipse
 10
-0.0000000000000003
 20
-6.89429942691628
 30
0.0
 11
2.822085883389686
 21
-8.851546759612388
 31
0.0
210
0.0
220
0.0
230
0.9999999999999998
 40
0.2338828441702476
 41
2.203705356137398
 42
2.300736001829839
  0
SPLINE
  5
19D8F
330
19D54
100
AcDbEntity
  8
0
100
AcDbSpline
210
0.0
220
0.0
230
1.0
 70
    12
 71
     2
 72
     6
 73
     3
 74
     0
 42
0.000000001
 43
0.0000000001
 40
0.0
 40
0.0
 40
0.0
 40
0.3870045666688413
 40
0.3870045666688413
 40
0.3870045666688413
 10
-0.3631484389423517
 20
-3.795897994836174
 30
0.0
 41
1.0
 10
-0.345562740218893
 20
-2.926135268866117
 30
0.0
 41
1.126874713457916
 10
-0.3390746133802238
 20
-0.4999999999999994
 30
0.0
 41
1.0
  0
LINE
  5
19D90
330
19D54
100
AcDbEntity
  8
0
100
AcDbLine
 10
-3.500000000000001
 20
-1.126477935952967
 30
0.0
 11
-1.880156143748684
 21
-3.795897994836174
 31
0.0
  0
SPLINE
  5
19D91
330
19D54
100
AcDbEntity
  8
0
100
AcDbSpline
210
0.0
220
0.0
230
1.0
 70
    12
 71
     2
 72
     6
 73
     3
 74
     0
 42
0.000000001
 43
0.0000000001
 40
0.0
 40
0.0
 40
0.0
 40
0.3870045666688413
 40
0.3870045666688413
 40
0.3870045666688413
 10
-3.483536766931139
 20
-0.5000000000000001
 30
0.0
 41
1.0
 10
-2.003732510604862
 20
-2.926135268864588
 30
0.0
 41
1.126874713456435
 10
-1.455377343266597
 20
-3.795897994836174
 30
0.0
 41
1.0
  0
ELLIPSE
  5
19D92
330
19D54
100
AcDbEntity
  8
0
100
AcDbEllipse
 10
-0.0000000000000003
 20
-6.894299426916278
 30
0.0
 11
2.474873734152915
 21
-8.849092731137774
 31
0.0
210
0.0
220
0.0
230
1.0
 40
0.2796754208987378
 41
3.829960171294801
 42
3.926990816987242
  0
LINE
  5
19D93
330
19D54
100
AcDbEntity
  8
0
100
AcDbLine
 10
1.438497223042275
 20
-16.25
 30
0.0
 11
0.8904982809309318
 21
-16.7118802153517
 31
0.0
  0
LINE
  5
19D94
330
19D54
100
AcDbEntity
  8
0
100
AcDbLine
 10
0.8904982809309316
 20
-15.78811978464829
 30
0.0
 11
1.438497223042275
 21
-16.25
 31
0.0
  0
SPLINE
  5
19D95
330
19D54
100
AcDbEntity
  8
0
100
AcDbSpline
210
0.0
220
0.0
230
1.0
 70
     8
 71
     3
 72
    11
 73
     7
 74
     0
 42
0.000000001
 43
0.0000000001
 40
0.0
 40
0.0
 40
0.0
 40
0.0
 40
1.112617358101977
 40
1.112617358101977
 40
1.112617358101977
 40
1.125568567015227
 40
1.125568567015227
 40
1.125568567015227
 40
1.125568567015227
 10
1.438497223042275
 20
-16.25
 30
0.0
 10
1.944106244330614
 20
-16.07292144768822
 30
0.0
 10
2.034006106789261
 20
-15.89584289537645
 30
0.0
 10
1.749540566780519
 20
-15.71876434306467
 30
0.0
 10
1.746229300233717
 20
-15.71670309414711
 30
0.0
 10
1.742871317593069
 20
-15.71464184522955
 30
0.0
 10
1.739467232705044
 20
-15.71258059631199
 30
0.0
  0
SPLINE
  5
19D96
330
19D54
100
AcDbEntity
  8
0
100
AcDbSpline
210
0.0
220
0.0
230
1.0
 70
     8
 71
     3
 72
     8
 73
     4
 74
     0
 42
0.000000001
 43
0.0000000001
 40
0.3817623233111464
 40
0.3817623233111464
 40
0.3817623233111464
 40
0.3817623233111464
 40
0.4001345392528873
 40
0.4001345392528873
 40
0.4001345392528873
 40
0.4001345392528873
 10
1.003628288522137
 20
-16.63314798625267
 30
0.0
 10
0.9685733363518536
 20
-16.6593634166744
 30
0.0
 10
0.9307943505862237
 20
-16.68558978819041
 30
0.0
 10
0.8904982809309316
 20
-16.7118802153517
 30
0.0
  0
SPLINE
  5
19D97
330
19D54
100
AcDbEntity
  8
0
100
AcDbSpline
210
0.0
220
0.0
230
1.0
 70
     8
 71
     3
 72
    12
 73
     8
 74
     0
 42
0.000000001
 43
0.0000000001
 40
0.0
 40
0.0
 40
0.0
 40
0.0
 40
0.054208008631754
 40
0.054208008631754
 40
0.1084160172635079
 40
0.1084160172635079
 40
0.109976067391124
 40
0.109976067391124
 40
0.109976067391124
 40
0.109976067391124
 10
0.8904982809309315
 20
-15.78811978464829
 30
0.0
 10
1.017929134082001
 20
-15.74277640332906
 30
0.0
 10
1.119878011859744
 20
-15.69788847673876
 30
0.0
 10
1.260572180813023
 20
-15.60720171410029
 30
0.0
 10
1.29788112620093
 20
-15.56231378750999
 30
0.0
 10
1.299970796112413
 20
-15.51566547082052
 30
0.0
 10
1.299999999956509
 20
-15.5143609126709
 30
0.0
 10
1.299999999055211
 20
-15.51305671002985
 30
0.0
  0
SPLINE
  5
19D98
330
19D54
100
AcDbEntity
  8
0
100
AcDbSpline
210
0.0
220
0.0
230
1.0
 70
     8
 71
     3
 72
     8
 73
     4
 74
     0
 42
0.000000001
 43
0.0000000001
 40
0.0
 40
0.0
 40
0.0
 40
0.0
 40
0.0957336262183895
 40
0.0957336262183895
 40
0.0957336262183895
 40
0.0957336262183895
 10
1.784905696544884
 20
-16.09293504240507
 30
0.0
 10
1.518607628251094
 20
-16.26693026946048
 30
0.0
 10
1.254704368314575
 20
-16.44538295848288
 30
0.0
 10
1.0036284095814
 20
-16.63314807380951
 30
0.0
  0
SPLINE
  5
19D99
330
19D54
100
AcDbEntity
  8
0
100
AcDbSpline
210
0.0
220
0.0
230
1.0
 70
     8
 71
     3
 72
     8
 73
     4
 74
     0
 42
0.000000001
 43
0.0000000001
 40
0.0134916393902375
 40
0.0134916393902375
 40
0.0134916393902375
 40
0.0134916393902375
 40
0.0650958970737996
 40
0.0650958970737996
 40
0.0650958970737996
 40
0.0650958970737996
 10
1.299999999999999
 20
-15.4425730148886
 30
0.0
 10
1.445703692743339
 20
-15.53367719085601
 30
0.0
 10
1.592410075450455
 20
-15.62344221414431
 30
0.0
 10
1.739472406064266
 20
-15.71258059631199
 30
0.0
  0
SPLINE
  5
19D9A
330
19D54
100
AcDbEntity
  8
0
100
AcDbSpline
210
0.0
220
0.0
230
1.0
 70
     8
 71
     3
 72
    17
 73
    13
 74
     0
 42
0.000000001
 43
0.0000000001
 40
1.195640676598213
 40
1.195640676598213
 40
1.195640676598213
 40
1.195640676598213
 40
2.236354128692176
 40
2.236354128692176
 40
2.236354128692176
 40
3.352543889879197
 40
3.352543889879197
 40
3.352543889879197
 40
4.467506880394788
 40
4.467506880394788
 40
4.467506880394788
 40
5.087544630581372
 40
5.087544630581372
 40
5.087544630581372
 40
5.087544630581372
 10
-1.953400886904375
 20
-26.53941948808043
 30
0.0
 10
-2.215768830877164
 20
-26.37378479783744
 30
0.0
 10
-2.101649096914694
 20
-26.20815010759445
 30
0.0
 10
-1.651802178535958
 20
-26.04251541735146
 30
0.0
 10
-1.169330732254946
 20
-25.86486829942999
 30
0.0
 10
-0.3242930832216271
 20
-25.68722118150851
 30
0.0
 10
0.4397193021722105
 20
-25.50957406358703
 30
0.0
 10
1.202891984480065
 20
-25.33212219228195
 30
0.0
 10
1.848128766448373
 20
-25.15467032097687
 30
0.0
 10
2.037348422808419
 20
-24.9772184496718
 30
0.0
 10
2.142574633022184
 20
-24.87853637682602
 30
0.0
 10
2.103320912144087
 20
-24.77985430398025
 30
0.0
 10
1.945468545982729
 20
-24.68117223113448
 30
0.0
  0
SPLINE
  5
19D9B
330
19D54
100
AcDbEntity
  8
0
100
AcDbSpline
210
0.0
220
0.0
230
1.0
 70
     8
 71
     3
 72
    20
 73
    16
 74
     0
 42
0.000000001
 43
0.0000000001
 40
7.478825983777799
 40
7.478825983777799
 40
7.478825983777799
 40
7.478825983777799
 40
7.88040157388232
 40
7.88040157388232
 40
7.88040157388232
 40
9.009527185649638
 40
9.009527185649638
 40
9.009527185649638
 40
10.13501323073768
 40
10.13501323073768
 40
10.13501323073768
 40
11.2571797634821
 40
11.2571797634821
 40
11.2571797634821
 40
11.37072993776096
 40
11.37072993776096
 40
11.37072993776096
 40
11.37072993776096
 10
-1.947487439018049
 20
-23.53941948808042
 30
0.0
 10
-2.052337789263586
 20
-23.47550674789024
 30
0.0
 10
-2.106692986854764
 20
-23.41159400770006
 30
0.0
 10
-2.099267128745003
 20
-23.34768126750988
 30
0.0
 10
-2.07838755641119
 20
-23.16797534502545
 30
0.0
 10
-1.570397706614593
 20
-22.98826942254102
 30
0.0
 10
-0.8471807528312815
 20
-22.8085635000566
 30
0.0
 10
-0.1262949801844564
 20
-22.62943683259988
 30
0.0
 10
0.7718784040745046
 20
-22.45031016514317
 30
0.0
 10
1.369225562783986
 20
-22.27118349768646
 30
0.0
 10
1.964810903765547
 20
-22.09258514702789
 30
0.0
 10
2.231709106764343
 20
-21.91398679636932
 30
0.0
 10
2.0285495920545
 20
-21.73538844571075
 30
0.0
 10
2.0079922169871
 20
-21.71731637418533
 30
0.0
 10
1.982726882117804
 20
-21.6992443026599
 30
0.0
 10
1.953117045592929
 20
-21.68117223113448
 30
0.0
  0
SPLINE
  5
19D9C
330
19D54
100
AcDbEntity
  8
0
100
AcDbSpline
210
0.0
220
0.0
230
1.0
 70
     8
 71
     3
 72
    17
 73
    13
 74
     0
 42
0.000000001
 43
0.0000000001
 40
13.76201129095738
 40
13.76201129095738
 40
13.76201129095738
 40
13.76201129095738
 40
14.6494084448491
 40
14.6494084448491
 40
14.6494084448491
 40
15.78321736658988
 40
15.78321736658988
 40
15.78321736658988
 40
16.90929037871616
 40
16.90929037871616
 40
16.90929037871616
 40
17.65391524494054
 40
17.65391524494054
 40
17.65391524494054
 40
17.65391524494054
 10
-1.949108710210213
 20
-20.53941948808041
 30
0.0
 10
-2.169265009130016
 20
-20.39818584455287
 30
0.0
 10
-2.134920328982691
 20
-20.25695220102532
 30
0.0
 10
-1.830460936454251
 20
-20.11571855749778
 30
0.0
 10
-1.441459490999255
 20
-19.93526726308104
 30
0.0
 10
-0.6335354811911915
 20
-19.7548159686643
 30
0.0
 10
0.1578844872663939
 20
-19.57436467424756
 30
0.0
 10
0.9439046452041445
 20
-19.39514458808529
 30
0.0
 10
1.673636575735752
 20
-19.21592450192301
 30
0.0
 10
1.95829022327274
 20
-19.03670441576073
 30
0.0
 10
2.146519744746913
 20
-18.91819368755198
 30
0.0
 10
2.134072077026966
 20
-18.79968295934322
 30
0.0
 10
1.947440021742774
 20
-18.68117223113448
 30
0.0
  0
SPLINE
  5
19D9D
330
19D54
100
AcDbEntity
  8
0
100
AcDbSpline
210
0.0
220
0.0
230
1.0
 70
     8
 71
     3
 72
    17
 73
    13
 74
     0
 42
0.000000001
 43
0.0000000001
 40
20.04519659813697
 40
20.04519659813697
 40
20.04519659813697
 40
20.04519659813697
 40
20.27095075759816
 40
20.27095075759816
 40
20.27095075759816
 40
21.38635081256739
 40
21.38635081256739
 40
21.38635081256739
 40
22.50398883040443
 40
22.50398883040443
 40
22.50398883040443
 40
22.74575045890293
 40
22.74575045890293
 40
22.74575045890293
 40
22.74575045890293
 10
-1.951113538207519
 20
-17.53941948808041
 30
0.0
 10
-2.010403156557008
 20
-17.50348959767861
 30
0.0
 10
-2.053084843335186
 20
-17.4675597072768
 30
0.0
 10
-2.076606715978134
 20
-17.431629816875
 30
0.0
 10
-2.192822949165341
 20
-17.25410838460167
 30
0.0
 10
-1.836334035730759
 20
-17.07658695232835
 30
0.0
 10
-1.194051020213502
 20
-16.89906552005503
 30
0.0
 10
-0.5504793141202019
 20
-16.72118790492883
 30
0.0
 10
0.3486723970984629
 20
-16.54331028980264
 30
0.0
 10
1.030373592504149
 20
-16.36543267467644
 30
0.0
 10
1.177835640609497
 20
-16.32695511645096
 30
0.0
 10
1.315203381869127
 20
-16.28847755822548
 30
0.0
 10
1.438497223042275
 20
-16.25
 30
0.0
  0
SPLINE
  5
19D9E
330
19D54
100
AcDbEntity
  8
0
100
AcDbSpline
210
0.0
220
0.0
230
1.0
 70
     8
 71
     3
 72
    11
 73
     7
 74
     0
 42
0.000000001
 43
0.0000000001
 40
-22.74575045890292
 40
-22.74575045890292
 40
-22.74575045890292
 40
-22.74575045890292
 40
-21.48436918133568
 40
-21.48436918133568
 40
-21.48436918133568
 40
-20.42035224833366
 40
-20.42035224833366
 40
-20.42035224833366
 40
-20.42035224833366
 10
0.8904982809309252
 20
-16.7118802153517
 30
0.0
 10
0.4922770148426244
 20
-16.9126352808001
 30
0.0
 10
-0.1530753527984082
 20
-17.1133903462485
 30
0.0
 10
-0.6309731396852884
 20
-17.31414541169689
 30
0.0
 10
-1.034095769246215
 20
-17.48348896611764
 30
0.0
 10
-1.291557798737766
 20
-17.6528325205384
 30
0.0
 10
-1.297856095378344
 20
-17.82217607495914
 30
0.0
  0
SPLINE
  5
19D9F
330
19D54
100
AcDbEntity
  8
0
100
AcDbSpline
210
0.0
220
0.0
230
1.0
 70
     8
 71
     3
 72
    14
 73
    10
 74
     0
 42
0.000000001
 43
0.0000000001
 40
-16.71218335808775
 40
-16.71218335808775
 40
-16.71218335808775
 40
-16.71218335808775
 40
-16.35203190718196
 40
-16.35203190718196
 40
-16.35203190718196
 40
-15.07313477455867
 40
-15.07313477455867
 40
-15.07313477455867
 40
-14.13716694115407
 40
-14.13716694115407
 40
-14.13716694115407
 40
-14.13716694115407
 10
1.091369065031434
 20
-19.59269630106581
 30
0.0
 10
1.00989076121251
 20
-19.65001618473919
 30
0.0
 10
0.9053894456898786
 20
-19.70733606841256
 30
0.0
 10
0.7805901060102116
 20
-19.76465595208594
 30
0.0
 10
0.3374278828171735
 20
-19.96819875244898
 30
0.0
 10
-0.3247332033250054
 20
-20.17174155281203
 30
0.0
 10
-0.7709512596698099
 20
-20.37528435317508
 30
0.0
 10
-1.097518375014248
 20
-20.52424826043644
 30
0.0
 10
-1.288914901713481
 20
-20.67321216769779
 30
0.0
 10
-1.294886624532778
 20
-20.82217607495914
 30
0.0
  0
SPLINE
  5
19DA0
330
19D54
100
AcDbEntity
  8
0
100
AcDbSpline
210
0.0
220
0.0
230
1.0
 70
     8
 71
     3
 72
    14
 73
    10
 74
     0
 42
0.000000001
 43
0.0000000001
 40
-10.42899805090816
 40
-10.42899805090816
 40
-10.42899805090816
 40
-10.42899805090816
 40
-10.0043972155785
 40
-10.0043972155785
 40
-10.0043972155785
 40
-8.708119370004258
 40
-8.708119370004258
 40
-8.708119370004258
 40
-7.853981633974484
 40
-7.853981633974484
 40
-7.853981633974484
 40
-7.853981633974484
 10
1.090747305100757
 20
-22.59269630106582
 30
0.0
 10
0.994077106679358
 20
-22.66027362284948
 30
0.0
 10
0.8659592777796648
 20
-22.72785094463315
 30
0.0
 10
0.7120170433292764
 20
-22.79542826641681
 30
0.0
 10
0.2420417361415267
 20
-23.00173729316046
 30
0.0
 10
-0.4303896976731505
 20
-23.20804631990412
 30
0.0
 10
-0.8539295765301575
 20
-23.41435534664777
 30
0.0
 10
-1.133006623538541
 20
-23.55029558941823
 30
0.0
 10
-1.288469875063324
 20
-23.68623583218869
 30
0.0
 10
-1.293017178086283
 20
-23.82217607495915
 30
0.0
  0
SPLINE
  5
19DA1
330
19D54
100
AcDbEntity
  8
0
100
AcDbSpline
210
0.0
220
0.0
230
1.0
 70
     8
 71
     3
 72
    14
 73
    10
 74
     0
 42
0.000000001
 43
0.0000000001
 40
-4.145812743728576
 40
-4.145812743728576
 40
-4.145812743728576
 40
-4.145812743728576
 40
-3.593669409104055
 40
-3.593669409104055
 40
-3.593669409104055
 40
-2.322546126573538
 40
-2.322546126573538
 40
-2.322546126573538
 40
-1.570796326794894
 40
-1.570796326794894
 40
-1.570796326794894
 40
-1.570796326794894
 10
1.089076426630788
 20
-25.59269630106582
 30
0.0
 10
0.9621389773484395
 20
-25.68057264206655
 30
0.0
 10
0.7831112654174199
 20
-25.76844898306729
 30
0.0
 10
0.5678849842485665
 20
-25.85632532406802
 30
0.0
 10
0.0723992655044774
 20
-26.05863087776195
 30
0.0
 10
-0.5734785560810482
 20
-26.26093643145588
 30
0.0
 10
-0.949643523385874
 20
-26.46324198514981
 30
0.0
 10
-1.172109701719251
 20
-26.58288668175293
 30
0.0
 10
-1.289191332094427
 20
-26.70253137835604
 30
0.0
 10
-1.291438947474059
 20
-26.82217607495915
 30
0.0
  0
SPLINE
  5
19DA2
330
19D54
100
AcDbEntity
  8
0
100
AcDbSpline
210
0.0
220
0.0
230
1.0
 70
     8
 71
     3
 72
    14
 73
    10
 74
     0
 42
0.000000001
 43
0.0000000001
 40
2.137372563451008
 40
2.137372563451008
 40
2.137372563451008
 40
2.137372563451008
 40
2.521021672376644
 40
2.521021672376644
 40
2.521021672376644
 40
3.818453268099742
 40
3.818453268099742
 40
3.818453268099742
 40
4.712388980384694
 40
4.712388980384694
 40
4.712388980384694
 40
4.712388980384694
 10
-1.091316611797033
 20
-25.62789541814908
 30
0.0
 10
-1.004223335923366
 20
-25.56683576605076
 30
0.0
 10
-0.8912001538305519
 20
-25.50577611395244
 30
0.0
 10
-0.755949707638044
 20
-25.44471646185412
 30
0.0
 10
-0.2985572671415381
 20
-25.23822381007119
 30
0.0
 10
0.3759785849765102
 20
-25.03173115828825
 30
0.0
 10
0.8142534775822728
 20
-24.82523850650532
 30
0.0
 10
1.116226683406496
 20
-24.68296421908879
 30
0.0
 10
1.28815043862627
 20
-24.54068993167227
 30
0.0
 10
1.2935079014135
 20
-24.39841564425574
 30
0.0
  0
SPLINE
  5
19DA3
330
19D54
100
AcDbEntity
  8
0
100
AcDbSpline
210
0.0
220
0.0
230
1.0
 70
     8
 71
     3
 72
    14
 73
    10
 74
     0
 42
0.000000001
 43
0.0000000001
 40
8.420557870630593
 40
8.420557870630593
 40
8.420557870630593
 40
8.420557870630593
 40
8.9463590772928
 40
8.9463590772928
 40
8.9463590772928
 40
10.21542587983827
 40
10.21542587983827
 40
10.21542587983827
 40
10.99557428756427
 40
10.99557428756427
 40
10.99557428756427
 40
10.99557428756427
 10
-1.089627986464394
 20
-22.62789541814907
 30
0.0
 10
-0.9689013176003335
 20
-22.5442115570251
 30
0.0
 10
-0.8007544084969978
 20
-22.46052769590112
 30
0.0
 10
-0.5984890035665548
 20
-22.37684383477715
 30
0.0
 10
-0.1103039110862556
 20
-22.17486558003821
 30
0.0
 10
0.5372401784926062
 20
-21.97288732529927
 30
0.0
 10
0.9240519055097554
 20
-21.77090907056034
 30
0.0
 10
1.161841241986676
 20
-21.64674459512547
 30
0.0
 10
1.289510254384099
 20
-21.52258011969061
 30
0.0
 10
1.29251366677971
 20
-21.39841564425574
 30
0.0
  0
SPLINE
  5
19DA4
330
19D54
100
AcDbEntity
  8
0
100
AcDbSpline
210
0.0
220
0.0
230
1.0
 70
     8
 71
     3
 72
    14
 73
    10
 74
     0
 42
0.000000001
 43
0.0000000001
 40
14.70374317781018
 40
14.70374317781018
 40
14.70374317781018
 40
14.70374317781018
 40
15.32117525940054
 40
15.32117525940054
 40
15.32117525940054
 40
16.59406359623497
 40
16.59406359623497
 40
16.59406359623497
 40
17.27875959474386
 40
17.27875959474386
 40
17.27875959474386
 40
17.27875959474386
 10
-1.089254502013718
 20
-19.62789541814907
 30
0.0
 10
-0.9462101866883305
 20
-19.52962805034044
 30
0.0
 10
-0.7381688343136684
 20
-19.43136068253182
 30
0.0
 10
-0.4903803567760238
 20
-19.3330933147232
 30
0.0
 10
0.0204564987485811
 20
-19.13050684391198
 30
0.0
 10
0.6581517121859504
 20
-18.92792037310075
 30
0.0
 10
1.006994748296106
 20
-18.72533390228953
 30
0.0
 10
1.194639983169039
 20
-18.6163611496116
 30
0.0
 10
1.290715188690668
 20
-18.50738839693367
 30
0.0
 10
1.291706155297659
 20
-18.39841564425574
 30
0.0
  0
SPLINE
  5
19DA5
330
19D54
100
AcDbEntity
  8
0
100
AcDbSpline
210
0.0
220
0.0
230
1.0
 70
     8
 71
     3
 72
    11
 73
     7
 74
     0
 42
0.000000001
 43
0.0000000001
 40
20.98692848498977
 40
20.98692848498977
 40
20.98692848498977
 40
20.98692848498977
 40
21.71221421886984
 40
21.71221421886984
 40
21.71221421886984
 40
22.74575045890293
 40
22.74575045890293
 40
22.74575045890293
 40
22.74575045890293
 10
-1.089756648785722
 20
-16.62789541814906
 30
0.0
 10
-0.9199533594727549
 20
-16.51246260844802
 30
0.0
 10
-0.6600737193614195
 20
-16.39702979874698
 30
0.0
 10
-0.3579307538700791
 20
-16.28159698904593
 30
0.0
 10
0.0726246671441736
 20
-16.11710458758005
 30
0.0
 10
0.5642082706273837
 20
-15.95261218611417
 30
0.0
 10
0.8904982809309284
 20
-15.78811978464829
 30
0.0
  0
SPLINE
  5
19DA6
330
19D54
100
AcDbEntity
  8
0
100
AcDbSpline
210
0.0
220
0.0
230
1.0
 70
     8
 71
     3
 72
     8
 73
     4
 74
     0
 42
0.000000001
 43
0.0000000001
 40
0.0
 40
0.0
 40
0.0
 40
0.0
 40
0.1022664355129521
 40
0.1022664355129521
 40
0.1022664355129521
 40
0.1022664355129521
 10
1.953946260524278
 20
-25.03941948808042
 30
0.0
 10
1.664517150202419
 20
-25.21901201530412
 30
0.0
 10
1.376276384325977
 20
-25.40150402532671
 30
0.0
 10
1.096866692399528
 20
-25.59269630106582
 30
0.0
  0
SPLINE
  5
19DA7
330
19D54
100
AcDbEntity
  8
0
100
AcDbSpline
210
0.0
220
0.0
230
1.0
 70
     8
 71
     3
 72
     8
 73
     4
 74
     0
 42
0.000000001
 43
0.0000000001
 40
0.0
 40
0.0
 40
0.0
 40
0.0
 40
0.1022664355129522
 40
0.1022664355129522
 40
0.1022664355129522
 40
0.1022664355129522
 10
1.953946260524279
 20
-22.03941948808041
 30
0.0
 10
1.66451715020242
 20
-22.21901201530411
 30
0.0
 10
1.376276384325977
 20
-22.4015040253267
 30
0.0
 10
1.096866692399528
 20
-22.59269630106582
 30
0.0
  0
SPLINE
  5
19DA8
330
19D54
100
AcDbEntity
  8
0
100
AcDbSpline
210
0.0
220
0.0
230
1.0
 70
     8
 71
     3
 72
     8
 73
     4
 74
     0
 42
0.000000001
 43
0.0000000001
 40
0.0
 40
0.0
 40
0.0
 40
0.0
 40
0.1022664355129519
 40
0.1022664355129519
 40
0.1022664355129519
 40
0.1022664355129519
 10
1.953946260524277
 20
-19.03941948808041
 30
0.0
 10
1.664517150202419
 20
-19.21901201530411
 30
0.0
 10
1.376276384325977
 20
-19.4015040253267
 30
0.0
 10
1.096866692399529
 20
-19.59269630106582
 30
0.0
  0
SPLINE
  5
19DA9
330
19D54
100
AcDbEntity
  8
0
100
AcDbSpline
210
0.0
220
0.0
230
1.0
 70
     8
 71
     3
 72
     8
 73
     4
 74
     0
 42
0.000000001
 43
0.0000000001
 40
0.0246086974470666
 40
0.0246086974470666
 40
0.0246086974470666
 40
0.0246086974470666
 40
0.1022664355129523
 40
0.1022664355129523
 40
0.1022664355129523
 40
0.1022664355129523
 10
-1.299999999999999
 20
-17.95610520863325
 30
0.0
 10
-1.515065778031796
 20
-17.81384465302458
 30
0.0
 10
-1.734163397014083
 20
-17.67579609461581
 30
0.0
 10
-1.953946260524277
 20
-17.53941948808041
 30
0.0
  0
SPLINE
  5
19DAA
330
19D54
100
AcDbEntity
  8
0
100
AcDbSpline
210
0.0
220
0.0
230
1.0
 70
     8
 71
     3
 72
     8
 73
     4
 74
     0
 42
0.000000001
 43
0.0000000001
 40
0.0246086974470665
 40
0.0246086974470665
 40
0.0246086974470665
 40
0.0246086974470665
 40
0.1022664355129521
 40
0.1022664355129521
 40
0.1022664355129521
 40
0.1022664355129521
 10
-1.3
 20
-20.95610520863325
 30
0.0
 10
-1.515065778031796
 20
-20.81384465302458
 30
0.0
 10
-1.734163397014083
 20
-20.67579609461582
 30
0.0
 10
-1.953946260524277
 20
-20.53941948808041
 30
0.0
  0
SPLINE
  5
19DAB
330
19D54
100
AcDbEntity
  8
0
100
AcDbSpline
210
0.0
220
0.0
230
1.0
 70
     8
 71
     3
 72
     8
 73
     4
 74
     0
 42
0.000000001
 43
0.0000000001
 40
0.0246086974470665
 40
0.0246086974470665
 40
0.0246086974470665
 40
0.0246086974470665
 40
0.1022664355129521
 40
0.1022664355129521
 40
0.1022664355129521
 40
0.1022664355129521
 10
-1.299999999999999
 20
-23.95610520863326
 30
0.0
 10
-1.515065778031796
 20
-23.81384465302458
 30
0.0
 10
-1.734163397014083
 20
-23.67579609461582
 30
0.0
 10
-1.953946260524278
 20
-23.53941948808042
 30
0.0
  0
SPLINE
  5
19DAC
330
19D54
100
AcDbEntity
  8
0
100
AcDbSpline
210
0.0
220
0.0
230
1.0
 70
     8
 71
     3
 72
     8
 73
     4
 74
     0
 42
0.000000001
 43
0.0000000001
 40
0.0246086974470664
 40
0.0246086974470664
 40
0.0246086974470664
 40
0.0246086974470664
 40
0.1022664355129521
 40
0.1022664355129521
 40
0.1022664355129521
 40
0.1022664355129521
 10
-1.299999999999999
 20
-26.95610520863326
 30
0.0
 10
-1.515065778031796
 20
-26.81384465302458
 30
0.0
 10
-1.734163397014084
 20
-26.67579609461582
 30
0.0
 10
-1.953946260524278
 20
-26.53941948808042
 30
0.0
  0
SPLINE
  5
19DAD
330
19D54
100
AcDbEntity
  8
0
100
AcDbSpline
210
0.0
220
0.0
230
1.0
 70
     8
 71
     3
 72
     8
 73
     4
 74
     0
 42
0.000000001
 43
0.0000000001
 40
0.0
 40
0.0
 40
0.0
 40
0.0
 40
0.1022664355129524
 40
0.1022664355129524
 40
0.1022664355129524
 40
0.1022664355129524
 10
-1.953946260524278
 20
-26.18117223113448
 30
0.0
 10
-1.664517150202418
 20
-26.00157970391079
 30
0.0
 10
-1.376276384325977
 20
-25.81908769388819
 30
0.0
 10
-1.096866692399528
 20
-25.62789541814908
 30
0.0
  0
SPLINE
  5
19DAE
330
19D54
100
AcDbEntity
  8
0
100
AcDbSpline
210
0.0
220
0.0
230
1.0
 70
     8
 71
     3
 72
     8
 73
     4
 74
     0
 42
0.000000001
 43
0.0000000001
 40
0.0
 40
0.0
 40
0.0
 40
0.0
 40
0.1022664355129521
 40
0.1022664355129521
 40
0.1022664355129521
 40
0.1022664355129521
 10
-1.953946260524277
 20
-23.18117223113448
 30
0.0
 10
-1.664517150202418
 20
-23.00157970391078
 30
0.0
 10
-1.376276384325977
 20
-22.81908769388819
 30
0.0
 10
-1.096866692399529
 20
-22.62789541814907
 30
0.0
  0
SPLINE
  5
19DAF
330
19D54
100
AcDbEntity
  8
0
100
AcDbSpline
210
0.0
220
0.0
230
1.0
 70
     8
 71
     3
 72
     8
 73
     4
 74
     0
 42
0.000000001
 43
0.0000000001
 40
0.0
 40
0.0
 40
0.0
 40
0.0
 40
0.1022664355129524
 40
0.1022664355129524
 40
0.1022664355129524
 40
0.1022664355129524
 10
-1.953946260524278
 20
-20.18117223113448
 30
0.0
 10
-1.664517150202418
 20
-20.00157970391079
 30
0.0
 10
-1.376276384325976
 20
-19.81908769388818
 30
0.0
 10
-1.096866692399528
 20
-19.62789541814907
 30
0.0
  0
SPLINE
  5
19DB0
330
19D54
100
AcDbEntity
  8
0
100
AcDbSpline
210
0.0
220
0.0
230
1.0
 70
     8
 71
     3
 72
     8
 73
     4
 74
     0
 42
0.000000001
 43
0.0000000001
 40
0.0
 40
0.0
 40
0.0
 40
0.0
 40
0.1022664355129522
 40
0.1022664355129522
 40
0.1022664355129522
 40
0.1022664355129522
 10
-1.953946260524278
 20
-17.18117223113447
 30
0.0
 10
-1.664517150202419
 20
-17.00157970391078
 30
0.0
 10
-1.376276384325976
 20
-16.81908769388819
 30
0.0
 10
-1.096866692399528
 20
-16.62789541814907
 30
0.0
  0
SPLINE
  5
19DB1
330
19D54
100
AcDbEntity
  8
0
100
AcDbSpline
210
0.0
220
0.0
230
1.0
 70
     8
 71
     3
 72
     8
 73
     4
 74
     0
 42
0.000000001
 43
0.0000000001
 40
0.0246086974470664
 40
0.0246086974470664
 40
0.0246086974470664
 40
0.0246086974470664
 40
0.1022664355129524
 40
0.1022664355129524
 40
0.1022664355129524
 40
0.1022664355129524
 10
1.299999999999998
 20
-24.26448651058163
 30
0.0
 10
1.515065778031795
 20
-24.40674706619031
 30
0.0
 10
1.734163397014082
 20
-24.54479562459908
 30
0.0
 10
1.953946260524277
 20
-24.68117223113448
 30
0.0
  0
SPLINE
  5
19DB2
330
19D54
100
AcDbEntity
  8
0
100
AcDbSpline
210
0.0
220
0.0
230
1.0
 70
     8
 71
     3
 72
     8
 73
     4
 74
     0
 42
0.000000001
 43
0.0000000001
 40
0.0246086974470664
 40
0.0246086974470664
 40
0.0246086974470664
 40
0.0246086974470664
 40
0.1022664355129523
 40
0.1022664355129523
 40
0.1022664355129523
 40
0.1022664355129523
 10
1.299999999999998
 20
-21.26448651058163
 30
0.0
 10
1.515065778031795
 20
-21.40674706619031
 30
0.0
 10
1.734163397014082
 20
-21.54479562459908
 30
0.0
 10
1.953946260524277
 20
-21.68117223113448
 30
0.0
  0
SPLINE
  5
19DB3
330
19D54
100
AcDbEntity
  8
0
100
AcDbSpline
210
0.0
220
0.0
230
1.0
 70
     8
 71
     3
 72
     8
 73
     4
 74
     0
 42
0.000000001
 43
0.0000000001
 40
0.0246086974470665
 40
0.0246086974470665
 40
0.0246086974470665
 40
0.0246086974470665
 40
0.1022664355129523
 40
0.1022664355129523
 40
0.1022664355129523
 40
0.1022664355129523
 10
1.299999999999998
 20
-18.26448651058163
 30
0.0
 10
1.515065778031796
 20
-18.40674706619031
 30
0.0
 10
1.734163397014083
 20
-18.54479562459907
 30
0.0
 10
1.953946260524277
 20
-18.68117223113448
 30
0.0
  0
SPLINE
  5
19DB4
330
19D54
100
AcDbEntity
  8
0
100
AcDbSpline
210
0.0
220
0.0
230
1.0
 70
     8
 71
     3
 72
    18
 73
    14
 74
     0
 42
0.000000001
 43
0.0000000001
 40
0.0208330284183819
 40
0.0208330284183819
 40
0.0208330284183819
 40
0.0208330284183819
 40
0.0371656662581174
 40
0.0371656662581174
 40
0.0733565709075947
 40
0.0733565709075947
 40
0.1086233849536643
 40
0.1086233849536643
 40
0.1430294179831338
 40
0.1430294179831338
 40
0.1766551463383764
 40
0.1766551463383764
 40
0.1966371631322449
 40
0.1966371631322449
 40
0.1966371631322449
 40
0.1966371631322449
 10
0.4930452212670389
 20
-31.61457907898961
 30
0.0
 10
0.4572077378075893
 20
-31.64348427546921
 30
0.0
 10
0.4186471146545256
 20
-31.67266714685061
 30
0.0
 10
0.2875685253076804
 20
-31.76793305037315
 30
0.0
 10
0.1889433698237657
 20
-31.83395339075203
 30
0.0
 10
-0.00671404521004
 20
-31.96905494348837
 30
0.0
 10
-0.1009335223496353
 20
-32.03612528211138
 30
0.0
 10
-0.2670626441369005
 20
-32.1736553511762
 30
0.0
 10
-0.336961968060008
 20
-32.24197335409576
 30
0.0
 10
-0.4394422016503987
 20
-32.38241595304141
 30
0.0
 10
-0.4711870509320277
 20
-32.45223445841133
 30
0.0
 10
-0.4875534000835133
 20
-32.5681729637756
 30
0.0
 10
-0.4859340909800621
 20
-32.61153083092592
 30
0.0
 10
-0.4769596746040489
 20
-32.65564548457766
 30
0.0
  0
LINE
  5
19DB5
330
19D54
100
AcDbEntity
  8
0
100
AcDbLine
 10
1.007783423763785
 20
-31.24366608995343
 30
0.0
 11
1.207838769282764
 21
-31.11029585960745
 31
0.0
  0
LINE
  5
19DB6
330
19D54
100
AcDbEntity
  8
0
100
AcDbLine
 10
1.207838769282764
 20
-31.11029585960745
 30
0.0
 11
0.740268226348185
 21
-30.79858216431773
 31
0.0
  0
SPLINE
  5
19DB7
330
19D54
100
AcDbEntity
  8
0
100
AcDbSpline
210
0.0
220
0.0
230
1.0
 70
     8
 71
     3
 72
    16
 73
    12
 74
     0
 42
0.000000001
 43
0.0000000001
 40
0.1932217457263628
 40
0.1932217457263628
 40
0.1932217457263628
 40
0.1932217457263628
 40
0.1966992853871793
 40
0.1966992853871793
 40
0.2380794626733607
 40
0.2380794626733607
 40
0.2804511526679092
 40
0.2804511526679092
 40
0.3129490350336377
 40
0.3129490350336377
 40
0.3464489876903638
 40
0.3464489876903638
 40
0.3464489876903638
 40
0.3464489876903638
 10
-0.3907964574298707
 20
-31.63860658895085
 30
0.0
 10
-0.3839949664324319
 20
-31.63173572927976
 30
0.0
 10
-0.3770448274429379
 20
-31.62486998888974
 30
0.0
 10
-0.2855204999086198
 20
-31.53635000507622
 30
0.0
 10
-0.1832652426025505
 20
-31.45773218910461
 30
0.0
 10
0.0421745339773629
 20
-31.29950926570821
 30
0.0
 10
0.1623246471895945
 20
-31.22231454196816
 30
0.0
 10
0.3680765095960136
 20
-31.08666704805243
 30
0.0
 10
0.4535086529951111
 20
-31.02916493430481
 30
0.0
 10
0.6113980084918255
 20
-30.913202723179
 30
0.0
 10
0.6820972341742859
 20
-30.85569834020375
 30
0.0
 10
0.7402682263481811
 20
-30.79858216431774
 30
0.0
  0
SPLINE
  5
19DB8
330
19D54
100
AcDbEntity
  8
0
100
AcDbSpline
210
0.0
220
0.0
230
1.0
 70
     8
 71
     3
 72
    14
 73
    10
 74
     0
 42
0.000000001
 43
0.0000000001
 40
0.0
 40
0.0
 40
0.0
 40
0.0
 40
1.265274109621229
 40
1.265274109621229
 40
1.265274109621229
 40
2.542154505590418
 40
2.542154505590418
 40
2.542154505590418
 40
3.265667301440409
 40
3.265667301440409
 40
3.265667301440409
 40
3.265667301440409
 10
1.207838769282765
 20
-31.11029585960745
 30
0.0
 10
0.8570629259772701
 20
-31.31167048851986
 30
0.0
 10
0.220031421233293
 20
-31.51304511743228
 30
0.0
 10
-0.2592764740039579
 20
-31.71441974634469
 30
0.0
 10
-0.7429810328879711
 20
-31.91764157310033
 30
0.0
 10
-1.031015398029476
 20
-32.12086339985596
 30
0.0
 10
-0.9974326923198264
 20
-32.3240852266116
 30
0.0
 10
-0.9784038800858084
 20
-32.43923586446135
 30
0.0
 10
-0.8633755969579553
 20
-32.55438650231112
 30
0.0
 10
-0.7051386063148523
 20
-32.66953714016088
 30
0.0
  0
SPLINE
  5
19DB9
330
19D54
100
AcDbEntity
  8
0
100
AcDbSpline
210
0.0
220
0.0
230
1.0
 70
     8
 71
     3
 72
    10
 73
     6
 74
     0
 42
0.000000001
 43
0.0000000001
 40
0.035839000477696
 40
0.035839000477696
 40
0.035839000477696
 40
0.035839000477696
 40
0.0390572375072308
 40
0.0390572375072308
 40
0.0718267267961187
 40
0.0718267267961187
 40
0.0718267267961187
 40
0.0718267267961187
 10
-0.4303146436506027
 20
-32.88493595368784
 30
0.0
 10
-0.4382148210543427
 20
-32.87826782870154
 30
0.0
 10
-0.4461548754222519
 20
-32.87162862242681
 30
0.0
 10
-0.5353227572865968
 20
-32.79770982897288
 30
0.0
 10
-0.6209029094547405
 20
-32.73275245245527
 30
0.0
 10
-0.7082217526164968
 20
-32.66953714016088
 30
0.0
  0
SPLINE
  5
19DBA
330
19D54
100
AcDbEntity
  8
0
100
AcDbSpline
210
0.0
220
0.0
230
1.0
 70
     8
 71
     3
 72
     8
 73
     4
 74
     0
 42
0.000000001
 43
0.0000000001
 40
0.0
 40
0.0
 40
0.0
 40
0.0
 40
0.0642429943133131
 40
0.0642429943133131
 40
0.0642429943133131
 40
0.0642429943133131
 10
1.007783423763787
 20
-31.24366608995343
 30
0.0
 10
0.8304221262228674
 20
-31.36190695498071
 30
0.0
 10
0.6548015556214783
 20
-31.48413147026435
 30
0.0
 10
0.493049796758243
 20
-31.61458970958415
 30
0.0
  0
SPLINE
  5
19DBB
330
19D54
100
AcDbEntity
  8
0
100
AcDbSpline
210
0.0
220
0.0
230
1.0
 70
     8
 71
     3
 72
     8
 73
     4
 74
     0
 42
0.000000001
 43
0.0000000001
 40
0.0
 40
0.0
 40
0.0
 40
0.0
 40
0.0596227978587839
 40
0.0596227978587839
 40
0.0596227978587839
 40
0.0596227978587839
 10
-0.8221605759379473
 20
-32.01262131496019
 30
0.0
 10
-0.6685175375675451
 20
-31.89377558871394
 30
0.0
 10
-0.5203085883046404
 20
-31.76946059125267
 30
0.0
 10
-0.39079593702915
 20
-31.63860769772107
 30
0.0
  0
ENDBLK
  5
19D56
330
19D54
100
AcDbEntity
  8
0
100
AcDbBlockEnd
  0
BLOCK
  5
19EA7
330
19EA6
100
AcDbEntity
  8
0
100
AcDbBlockBegin
  2
TTFA442X35T-20-Top
 70
     0
 10
0.0
 20
0.0
 30
0.0
  3
TTFA442X35T-20-Top
  1

  0
LINE
  5
19EA9
330
19EA6
100
AcDbEntity
  8
0
100
AcDbLine
 10
2.528681092886313
 20
-0.4844173416495316
 30
0.0
 11
2.42705507662615
 21
-0.4844173416495316
 31
0.0
  0
LINE
  5
19EAA
330
19EA6
100
AcDbEntity
  8
0
100
AcDbLine
 10
2.42705507662615
 20
-0.4844173416495316
 30
0.0
 11
2.577235745099502
 21
-0.21680216549777
 31
0.0
  0
LINE
  5
19EAB
330
19EA6
100
AcDbEntity
  8
0
100
AcDbLine
 10
2.577235745099502
 20
-0.21680216549777
 30
0.0
 11
2.265582628568336
 21
-0.2168021654977702
 31
0.0
  0
LINE
  5
19EAC
330
19EA6
100
AcDbEntity
  8
0
100
AcDbLine
 10
2.265582628568336
 20
-0.2168021654977702
 30
0.0
 11
2.265582628568336
 21
-0.1287262847389623
 31
0.0
  0
LINE
  5
19EAD
330
19EA6
100
AcDbEntity
  8
0
100
AcDbLine
 10
2.265582628568336
 20
-0.1287262847389623
 30
0.0
 11
2.626919575271137
 21
-0.1287262847389622
 31
0.0
  0
LINE
  5
19EAE
330
19EA6
100
AcDbEntity
  8
0
100
AcDbLine
 10
2.626919575271137
 20
-0.1287262847389622
 30
0.0
 11
2.771454353952257
 21
0.1275971118283368
 31
0.0
  0
LINE
  5
19EAF
330
19EA6
100
AcDbEntity
  8
0
100
AcDbLine
 10
2.771454353952257
 20
0.1275971118283368
 30
0.0
 11
2.265582628568336
 21
0.1275971118283366
 31
0.0
  0
LINE
  5
19EB0
330
19EA6
100
AcDbEntity
  8
0
100
AcDbLine
 10
2.265582628568336
 20
0.1275971118283366
 30
0.0
 11
2.265582628568336
 21
0.2156729925871441
 31
0.0
  0
LINE
  5
19EB1
330
19EA6
100
AcDbEntity
  8
0
100
AcDbLine
 10
2.265582628568336
 20
0.2156729925871441
 30
0.0
 11
2.821138184123892
 21
0.2156729925871444
 31
0.0
  0
LINE
  5
19EB2
330
19EA6
100
AcDbEntity
  8
0
100
AcDbLine
 10
2.821138184123892
 20
0.2156729925871444
 30
0.0
 11
2.97244803055569
 21
0.4844173466973523
 31
0.0
  0
LINE
  5
19EB3
330
19EA6
100
AcDbEntity
  8
0
100
AcDbLine
 10
2.97244803055569
 20
0.4844173466973523
 30
0.0
 11
3.075203224774299
 21
0.4844173466973523
 31
0.0
  0
LINE
  5
19EB4
330
19EA6
100
AcDbEntity
  8
0
100
AcDbLine
 10
3.075203224774299
 20
0.4844173466973523
 30
0.0
 11
2.923893378342501
 21
0.2156729925871445
 31
0.0
  0
LINE
  5
19EB5
330
19EA6
100
AcDbEntity
  8
0
100
AcDbLine
 10
2.923893378342501
 20
0.2156729925871445
 30
0.0
 11
3.233288138956774
 21
0.2156729925871446
 31
0.0
  0
LINE
  5
19EB6
330
19EA6
100
AcDbEntity
  8
0
100
AcDbLine
 10
3.233288138956774
 20
0.2156729925871446
 30
0.0
 11
3.233288138956774
 21
0.127597111828337
 31
0.0
  0
LINE
  5
19EB7
330
19EA6
100
AcDbEntity
  8
0
100
AcDbLine
 10
3.233288138956774
 20
0.127597111828337
 30
0.0
 11
2.874209548170866
 21
0.1275971118283369
 31
0.0
  0
LINE
  5
19EB8
330
19EA6
100
AcDbEntity
  8
0
100
AcDbLine
 10
2.874209548170866
 20
0.1275971118283369
 30
0.0
 11
2.731933125406638
 21
-0.1287262847389621
 31
0.0
  0
LINE
  5
19EB9
330
19EA6
100
AcDbEntity
  8
0
100
AcDbLine
 10
2.731933125406638
 20
-0.1287262847389621
 30
0.0
 11
3.233288138956774
 21
-0.1287262847389619
 31
0.0
  0
LINE
  5
19EBA
330
19EA6
100
AcDbEntity
  8
0
100
AcDbLine
 10
3.233288138956774
 20
-0.1287262847389619
 30
0.0
 11
3.233288138956774
 21
-0.2168021654977697
 31
0.0
  0
LINE
  5
19EBB
330
19EA6
100
AcDbEntity
  8
0
100
AcDbLine
 10
3.233288138956774
 20
-0.2168021654977697
 30
0.0
 11
2.67999093931811
 21
-0.21680216549777
 31
0.0
  0
LINE
  5
19EBC
330
19EA6
100
AcDbEntity
  8
0
100
AcDbLine
 10
2.67999093931811
 20
-0.21680216549777
 30
0.0
 11
2.528681092886313
 21
-0.4844173416495316
 31
0.0
  0
SPLINE
  5
19EBD
330
19EA6
100
AcDbEntity
  8
0
100
AcDbSpline
210
0.0
220
0.0
230
1.0
 70
     8
 71
     2
 72
     8
 73
     5
 74
     0
 42
0.000000001
 43
0.0000000001
 40
0.0
 40
0.0
 40
0.0
 40
1.0
 40
2.0
 40
3.0
 40
3.0
 40
3.0
 10
-2.428353648916705
 20
0.1871189137455062
 30
0.0
 10
-2.451219502915969
 20
0.2633384270763875
 30
0.0
 10
-2.517530479513836
 20
0.3509908674069009
 30
0.0
 10
-2.641768286243172
 20
0.4035823316052087
 30
0.0
 10
-2.717225604440744
 20
0.4035823316052085
 30
0.0
  0
LINE
  5
19EBE
330
19EA6
100
AcDbEntity
  8
0
100
AcDbLine
 10
-2.30945120812053
 20
0.2198933044777849
 30
0.0
 11
-2.428353648916705
 21
0.1871189137455062
 31
0.0
  0
SPLINE
  5
19EBF
330
19EA6
100
AcDbEntity
  8
0
100
AcDbSpline
210
0.0
220
0.0
230
1.0
 70
     8
 71
     2
 72
     8
 73
     5
 74
     0
 42
0.000000001
 43
0.0000000001
 40
0.0
 40
0.0
 40
0.0
 40
1.0
 40
2.0
 40
3.0
 40
3.0
 40
3.0
 10
-2.717987799574053
 20
0.5171494064682216
 30
0.0
 10
-2.609756090644201
 20
0.5171494064682216
 30
0.0
 10
-2.434451209983175
 20
0.4470274542038108
 30
0.0
 10
-2.33536584265303
 20
0.3212652572078571
 30
0.0
 10
-2.30945120812053
 20
0.2198933044777849
 30
0.0
  0
SPLINE
  5
19EC0
330
19EA6
100
AcDbEntity
  8
0
100
AcDbSpline
210
0.0
220
0.0
230
1.0
 70
     8
 71
     2
 72
     8
 73
     5
 74
     0
 42
0.000000001
 43
0.0000000001
 40
0.0
 40
0.0
 40
0.0
 40
1.0
 40
2.0
 40
3.0
 40
3.0
 40
3.0
 10
-3.218750002157943
 20
-0.0049542598483149
 30
0.0
 10
-3.218750002157943
 20
0.1413872057469772
 30
0.0
 10
-3.096798780828533
 20
0.3944359900055028
 30
0.0
 10
-2.86737804570258
 20
0.5171494064682216
 30
0.0
 10
-2.717987799574053
 20
0.5171494064682216
 30
0.0
  0
SPLINE
  5
19EC1
330
19EA6
100
AcDbEntity
  8
0
100
AcDbSpline
210
0.0
220
0.0
230
1.0
 70
     8
 71
     2
 72
     8
 73
     5
 74
     0
 42
0.000000001
 43
0.0000000001
 40
0.0
 40
0.0
 40
0.0
 40
1.0
 40
2.0
 40
3.0
 40
3.0
 40
3.0
 10
-2.708079262841039
 20
-0.5171493894318362
 30
0.0
 10
-2.855182923569639
 20
-0.5171493894318362
 30
0.0
 10
-3.096036585695224
 20
-0.3906249973025733
 30
0.0
 10
-3.218750002157943
 20
-0.1520579205769152
 30
0.0
 10
-3.218750002157943
 20
-0.0049542598483149
 30
0.0
  0
SPLINE
  5
19EC2
330
19EA6
100
AcDbEntity
  8
0
100
AcDbSpline
210
0.0
220
0.0
230
1.0
 70
     8
 71
     2
 72
     7
 73
     4
 74
     0
 42
0.000000001
 43
0.0000000001
 40
0.0
 40
0.0
 40
0.0
 40
1.0
 40
2.0
 40
2.0
 40
2.0
 10
-2.294207305454354
 20
-0.3608993871035294
 30
0.0
 10
-2.391768282517882
 20
-0.4386432907010282
 30
0.0
 10
-2.599085358777879
 20
-0.517149389431836
 30
0.0
 10
-2.708079262841039
 20
-0.5171493894318362
 30
0.0
  0
LINE
  5
19EC3
330
19EA6
100
AcDbEntity
  8
0
100
AcDbLine
 10
-2.294207305454354
 20
0.0095274476845529
 30
0.0
 11
-2.294207305454354
 21
-0.3608993871035294
 31
0.0
  0
LINE
  5
19EC4
330
19EA6
100
AcDbEntity
  8
0
100
AcDbLine
 10
-2.717225604440744
 20
0.0095274476845527
 30
0.0
 11
-2.294207305454354
 21
0.0095274476845529
 31
0.0
  0
LINE
  5
19EC5
330
19EA6
100
AcDbEntity
  8
0
100
AcDbLine
 10
-2.717225604440745
 20
-0.1086127979783129
 30
0.0
 11
-2.717225604440744
 21
0.0095274476845527
 31
0.0
  0
LINE
  5
19EC6
330
19EA6
100
AcDbEntity
  8
0
100
AcDbLine
 10
-2.423780478116852
 20
-0.1086127979783127
 30
0.0
 11
-2.717225604440745
 21
-0.1086127979783129
 31
0.0
  0
LINE
  5
19EC7
330
19EA6
100
AcDbEntity
  8
0
100
AcDbLine
 10
-2.423780478116852
 20
-0.2938262153723539
 30
0.0
 11
-2.423780478116852
 21
-0.1086127979783127
 31
0.0
  0
SPLINE
  5
19EC8
330
19EA6
100
AcDbEntity
  8
0
100
AcDbSpline
210
0.0
220
0.0
230
1.0
 70
     8
 71
     2
 72
     7
 73
     4
 74
     0
 42
0.000000001
 43
0.0000000001
 40
0.0
 40
0.0
 40
0.0
 40
1.0
 40
2.0
 40
2.0
 40
2.0
 10
-2.715701214174127
 20
-0.3974847535023528
 30
0.0
 10
-2.629573164110231
 20
-0.3974847535023526
 30
0.0
 10
-2.465701210448837
 20
-0.3311737769044856
 30
0.0
 10
-2.423780478116852
 20
-0.2938262153723539
 30
0.0
  0
SPLINE
  5
19EC9
330
19EA6
100
AcDbEntity
  8
0
100
AcDbSpline
210
0.0
220
0.0
230
1.0
 70
     8
 71
     2
 72
     8
 73
     5
 74
     0
 42
0.000000001
 43
0.0000000001
 40
0.0
 40
0.0
 40
0.0
 40
1.0
 40
2.0
 40
3.0
 40
3.0
 40
3.0
 10
-3.082317073295665
 20
0.0034298866180821
 30
0.0
 10
-3.082317073295665
 20
-0.12995426171096
 30
0.0
 10
-2.990091462165299
 20
-0.310594508305148
 30
0.0
 10
-2.814024386370963
 20
-0.3974847535023528
 30
0.0
 10
-2.715701214174127
 20
-0.3974847535023528
 30
0.0
  0
SPLINE
  5
19ECA
330
19EA6
100
AcDbEntity
  8
0
100
AcDbSpline
210
0.0
220
0.0
230
1.0
 70
     8
 71
     2
 72
     6
 73
     3
 74
     0
 42
0.000000001
 43
0.0000000001
 40
0.0
 40
0.0
 40
0.0
 40
1.0
 40
1.0
 40
1.0
 10
-3.044207316630225
 20
0.2046494018116085
 30
0.0
 10
-3.082317073295665
 20
0.1116615955479333
 30
0.0
 10
-3.082317073295665
 20
0.0034298866180821
 30
0.0
  0
SPLINE
  5
19ECB
330
19EA6
100
AcDbEntity
  8
0
100
AcDbSpline
210
0.0
220
0.0
230
1.0
 70
     8
 71
     2
 72
     8
 73
     5
 74
     0
 42
0.000000001
 43
0.0000000001
 40
0.0
 40
0.0
 40
0.0
 40
1.0
 40
2.0
 40
3.0
 40
3.0
 40
3.0
 10
-2.717225604440744
 20
0.4035823316052085
 30
0.0
 10
-2.807926825304493
 20
0.4035823316052085
 30
0.0
 10
-2.940548778500226
 20
0.3487042820069742
 30
0.0
 10
-3.02134146263096
 20
0.2580030611432255
 30
0.0
 10
-3.044207316630225
 20
0.2046494018116085
 30
0.0
  0
SPLINE
  5
19ECC
330
19EA6
100
AcDbEntity
  8
0
100
AcDbSpline
210
0.0
220
0.0
230
1.0
 70
     8
 71
     3
 72
    12
 73
     8
 74
     0
 42
0.000000001
 43
0.0000000001
 40
0.0701625880555413
 40
0.0701625880555413
 40
0.0701625880555413
 40
0.0701625880555413
 40
0.0876266719572695
 40
0.0876266719572695
 40
0.1050907558589977
 40
0.1050907558589977
 40
0.121349748553623
 40
0.121349748553623
 40
0.121349748553623
 40
0.121349748553623
 10
-1.710400172474266
 20
0.9874999999999991
 30
0.0
 10
-1.681293365971386
 20
1.037914467709064
 30
0.0
 10
-1.638865373917004
 20
1.084176439154849
 30
0.0
 10
-1.537687359965963
 20
1.152007246533188
 30
0.0
 10
-1.478938253707482
 20
1.173575309033163
 30
0.0
 10
-1.368340087023359
 20
1.188649165648808
 30
0.0
 10
-1.31093246180066
 20
1.184828025995694
 30
0.0
 10
-1.257017608299373
 20
1.168994388991213
 30
0.0
  0
SPLINE
  5
19ECD
330
19EA6
100
AcDbEntity
  8
0
100
AcDbSpline
210
0.0
220
0.0
230
1.0
 70
     8
 71
     3
 72
    18
 73
    14
 74
     0
 42
0.000000001
 43
0.0000000001
 40
0.028525742117437
 40
0.028525742117437
 40
0.028525742117437
 40
0.028525742117437
 40
0.0417123967319211
 40
0.0417123967319211
 40
0.0621425582382483
 40
0.0621425582382483
 40
0.0825727197445755
 40
0.0825727197445755
 40
0.1030028812509027
 40
0.1030028812509027
 40
0.1234330427572299
 40
0.1234330427572299
 40
0.1366196973717141
 40
0.1366196973717141
 40
0.1366196973717141
 40
0.1366196973717141
 10
-1.257017608299373
 20
1.168994388991213
 30
0.0
 10
-1.212572578662662
 20
1.155941836304516
 30
0.0
 10
-1.167442820982028
 20
1.14761349154439
 30
0.0
 10
-1.056846689319522
 20
1.137519885577465
 30
0.0
 10
-0.9830801185813072
 20
1.141273850507828
 30
0.0
 10
-0.840396696767859
 20
1.172524294941498
 30
0.0
 10
-0.7714767962263282
 20
1.200035931215611
 30
0.0
 10
-0.6535232037736727
 20
1.268136469570035
 30
0.0
 10
-0.5952374775898476
 20
1.314067036128241
 30
0.0
 10
-0.4968320879240121
 20
1.422009281900743
 30
0.0
 10
-0.4566977735602939
 20
1.484016023644918
 30
0.0
 10
-0.4101410269121882
 20
1.584841886208399
 30
0.0
 10
-0.3947887062056154
 20
1.628089575206527
 30
0.0
 10
-0.3838700335981742
 20
1.673106376287219
 30
0.0
  0
SPLINE
  5
19ECE
330
19EA6
100
AcDbEntity
  8
0
100
AcDbSpline
210
0.0
220
0.0
230
1.0
 70
     8
 71
     3
 72
    12
 73
     8
 74
     0
 42
0.000000001
 43
0.0000000001
 40
0.0189754275574595
 40
0.0189754275574595
 40
0.0189754275574595
 40
0.0189754275574595
 40
0.0352344202520848
 40
0.0352344202520848
 40
0.052698504153813
 40
0.052698504153813
 40
0.0701625880555413
 40
0.0701625880555413
 40
0.0701625880555413
 40
0.0701625880555413
 10
-0.3838700335981742
 20
1.673106376287219
 30
0.0
 10
-0.3706249387277128
 20
1.727714827562891
 30
0.0
 10
-0.3452303301273682
 20
1.779341859203243
 30
0.0
 10
-0.2768769040231541
 20
1.867585752855856
 30
0.0
 10
-0.2288238608585238
 20
1.907679940075345
 30
0.0
 10
-0.119491651534153
 20
1.961387266772234
 30
0.0
 10
-0.058213613005762
 20
1.974999999999999
 30
0.0
 10
-0.0000000000000012
 20
1.974999999999999
 30
0.0
  0
SPLINE
  5
19ECF
330
19EA6
100
AcDbEntity
  8
0
100
AcDbSpline
210
0.0
220
0.0
230
1.0
 70
     8
 71
     3
 72
    12
 73
     8
 74
     0
 42
0.000000001
 43
0.0000000001
 40
0.0701625880555413
 40
0.0701625880555413
 40
0.0701625880555413
 40
0.0701625880555413
 40
0.0876266719572696
 40
0.0876266719572696
 40
0.1050907558589978
 40
0.1050907558589978
 40
0.1213497485536232
 40
0.1213497485536232
 40
0.1213497485536232
 40
0.1213497485536232
 10
-1.710400172474266
 20
-0.9875000000000015
 30
0.0
 10
-1.739506978977146
 20
-0.9370855322909365
 30
0.0
 10
-1.758357025451157
 20
-0.8772108276173856
 30
0.0
 10
-1.766511220824486
 20
-0.7556726935421577
 30
0.0
 10
-1.755815157730634
 20
-0.6940104438226931
 30
0.0
 10
-1.713570417150726
 20
-0.5906926935544341
 30
0.0
 10
-1.681557400528371
 20
-0.5428868015671979
 30
0.0
 10
-1.640887641897545
 20
-0.5041119872960073
 30
0.0
  0
SPLINE
  5
19ED0
330
19EA6
100
AcDbEntity
  8
0
100
AcDbSpline
210
0.0
220
0.0
230
1.0
 70
     8
 71
     3
 72
    18
 73
    14
 74
     0
 42
0.000000001
 43
0.0000000001
 40
0.028525742117437
 40
0.028525742117437
 40
0.028525742117437
 40
0.028525742117437
 40
0.0417123967319211
 40
0.0417123967319211
 40
0.0621425582382483
 40
0.0621425582382483
 40
0.0825727197445755
 40
0.0825727197445755
 40
0.1030028812509027
 40
0.1030028812509027
 40
0.1234330427572299
 40
0.1234330427572299
 40
0.136619697371714
 40
0.136619697371714
 40
0.136619697371714
 40
0.136619697371714
 10
-1.640887641897545
 20
-0.5041119872960073
 30
0.0
 10
-1.607361284868276
 20
-0.472147738902012
 30
0.0
 10
-1.577583847894215
 20
-0.43722839466401
 30
0.0
 10
-1.513544462879815
 20
-0.3464961380674539
 30
0.0
 10
-1.479912206505317
 20
-0.2807354313929159
 30
0.0
 10
-1.435634174357705
 20
-0.1415427411867444
 30
0.0
 10
-1.424999999999999
 20
-0.0681005383544251
 30
0.0
 10
-1.424999999999999
 20
0.0681005383544231
 30
0.0
 10
-1.435634174357705
 20
0.1415427411867425
 30
0.0
 10
-1.479912206505317
 20
0.2807354313929138
 30
0.0
 10
-1.513544462879815
 20
0.3464961380674517
 30
0.0
 10
-1.577583847894215
 20
0.4372283946640078
 30
0.0
 10
-1.607361284868276
 20
0.4721477389020097
 30
0.0
 10
-1.640887641897545
 20
0.5041119872960049
 30
0.0
  0
SPLINE
  5
19ED1
330
19EA6
100
AcDbEntity
  8
0
100
AcDbSpline
210
0.0
220
0.0
230
1.0
 70
     8
 71
     3
 72
    12
 73
     8
 74
     0
 42
0.000000001
 43
0.0000000001
 40
0.0189754275574595
 40
0.0189754275574595
 40
0.0189754275574595
 40
0.0189754275574595
 40
0.0352344202520847
 40
0.0352344202520847
 40
0.052698504153813
 40
0.052698504153813
 40
0.0701625880555413
 40
0.0701625880555413
 40
0.0701625880555413
 40
0.0701625880555413
 10
-1.640887641897545
 20
0.5041119872960049
 30
0.0
 10
-1.681557400528371
 20
0.5428868015671952
 30
0.0
 10
-1.713570417150726
 20
0.590692693554432
 30
0.0
 10
-1.755815157730635
 20
0.6940104438226904
 30
0.0
 10
-1.766511220824486
 20
0.7556726935421552
 30
0.0
 10
-1.758357025451157
 20
0.8772108276173828
 30
0.0
 10
-1.739506978977147
 20
0.9370855322909338
 30
0.0
 10
-1.710400172474266
 20
0.9874999999999991
 30
0.0
  0
SPLINE
  5
19ED2
330
19EA6
100
AcDbEntity
  8
0
100
AcDbSpline
210
0.0
220
0.0
230
1.0
 70
     8
 71
     3
 72
    12
 73
     8
 74
     0
 42
0.000000001
 43
0.0000000001
 40
0.0701625880555411
 40
0.0701625880555411
 40
0.0701625880555411
 40
0.0701625880555411
 40
0.0876266719572693
 40
0.0876266719572693
 40
0.1050907558589975
 40
0.1050907558589975
 40
0.1213497485536227
 40
0.1213497485536227
 40
0.1213497485536227
 40
0.1213497485536227
 10
0.0000000000000005
 20
-1.974999999999998
 30
0.0
 10
-0.0582136130057601
 20
-1.974999999999998
 30
0.0
 10
-0.119491651534151
 20
-1.961387266772233
 30
0.0
 10
-0.2288238608585217
 20
-1.907679940075344
 30
0.0
 10
-0.276876904023152
 20
-1.867585752855855
 30
0.0
 10
-0.345230330127366
 20
-1.779341859203241
 30
0.0
 10
-0.3706249387277118
 20
-1.727714827562891
 30
0.0
 10
-0.3838700335981733
 20
-1.67310637628722
 30
0.0
  0
SPLINE
  5
19ED3
330
19EA6
100
AcDbEntity
  8
0
100
AcDbSpline
210
0.0
220
0.0
230
1.0
 70
     8
 71
     3
 72
    18
 73
    14
 74
     0
 42
0.000000001
 43
0.0000000001
 40
0.028525742117437
 40
0.028525742117437
 40
0.028525742117437
 40
0.028525742117437
 40
0.0417123967319211
 40
0.0417123967319211
 40
0.0621425582382483
 40
0.0621425582382483
 40
0.0825727197445755
 40
0.0825727197445755
 40
0.1030028812509027
 40
0.1030028812509027
 40
0.1234330427572299
 40
0.1234330427572299
 40
0.136619697371714
 40
0.136619697371714
 40
0.136619697371714
 40
0.136619697371714
 10
-0.3838700335981733
 20
-1.67310637628722
 30
0.0
 10
-0.3947887062056143
 20
-1.628089575206528
 30
0.0
 10
-0.4101410269121871
 20
-1.584841886208401
 30
0.0
 10
-0.4566977735602926
 20
-1.484016023644919
 30
0.0
 10
-0.4968320879240107
 20
-1.422009281900744
 30
0.0
 10
-0.5952374775898467
 20
-1.314067036128242
 30
0.0
 10
-0.6535232037736718
 20
-1.268136469570037
 30
0.0
 10
-0.7714767962263272
 20
-1.200035931215613
 30
0.0
 10
-0.8403966967678579
 20
-1.172524294941499
 30
0.0
 10
-0.983080118581306
 20
-1.14127385050783
 30
0.0
 10
-1.056846689319521
 20
-1.137519885577466
 30
0.0
 10
-1.167442820982027
 20
-1.147613491544392
 30
0.0
 10
-1.212572578662661
 20
-1.155941836304518
 30
0.0
 10
-1.257017608299372
 20
-1.168994388991214
 30
0.0
  0
SPLINE
  5
19ED4
330
19EA6
100
AcDbEntity
  8
0
100
AcDbSpline
210
0.0
220
0.0
230
1.0
 70
     8
 71
     3
 72
    12
 73
     8
 74
     0
 42
0.000000001
 43
0.0000000001
 40
0.0189754275574596
 40
0.0189754275574596
 40
0.0189754275574596
 40
0.0189754275574596
 40
0.0352344202520848
 40
0.0352344202520848
 40
0.0526985041538131
 40
0.0526985041538131
 40
0.0701625880555413
 40
0.0701625880555413
 40
0.0701625880555413
 40
0.0701625880555413
 10
-1.257017608299372
 20
-1.168994388991214
 30
0.0
 10
-1.310932461800659
 20
-1.184828025995696
 30
0.0
 10
-1.368340087023358
 20
-1.18864916564881
 30
0.0
 10
-1.478938253707481
 20
-1.173575309033166
 30
0.0
 10
-1.537687359965963
 20
-1.15200724653319
 30
0.0
 10
-1.638865373917004
 20
-1.084176439154851
 30
0.0
 10
-1.681293365971385
 20
-1.037914467709066
 30
0.0
 10
-1.710400172474266
 20
-0.9875000000000015
 30
0.0
  0
SPLINE
  5
19ED5
330
19EA6
100
AcDbEntity
  8
0
100
AcDbSpline
210
0.0
220
0.0
230
1.0
 70
     8
 71
     3
 72
    12
 73
     8
 74
     0
 42
0.000000001
 43
0.0000000001
 40
0.0189754275574595
 40
0.0189754275574595
 40
0.0189754275574595
 40
0.0189754275574595
 40
0.0352344202520847
 40
0.0352344202520847
 40
0.0526985041538129
 40
0.0526985041538129
 40
0.0701625880555411
 40
0.0701625880555411
 40
0.0701625880555411
 40
0.0701625880555411
 10
0.383870033598174
 20
-1.673106376287219
 30
0.0
 10
0.3706249387277127
 20
-1.727714827562891
 30
0.0
 10
0.3452303301273671
 20
-1.779341859203242
 30
0.0
 10
0.2768769040231529
 20
-1.867585752855855
 30
0.0
 10
0.2288238608585226
 20
-1.907679940075344
 30
0.0
 10
0.1194916515341519
 20
-1.961387266772232
 30
0.0
 10
0.0582136130057612
 20
-1.974999999999998
 30
0.0
 10
0.0000000000000005
 20
-1.974999999999998
 30
0.0
  0
SPLINE
  5
19ED6
330
19EA6
100
AcDbEntity
  8
0
100
AcDbSpline
210
0.0
220
0.0
230
1.0
 70
     8
 71
     3
 72
    12
 73
     8
 74
     0
 42
0.000000001
 43
0.0000000001
 40
0.0701625880555416
 40
0.0701625880555416
 40
0.0701625880555416
 40
0.0701625880555416
 40
0.0876266719572699
 40
0.0876266719572699
 40
0.1050907558589982
 40
0.1050907558589982
 40
0.1213497485536236
 40
0.1213497485536236
 40
0.1213497485536236
 40
0.1213497485536236
 10
1.710400172474268
 20
-0.9875000000000008
 30
0.0
 10
1.681293365971388
 20
-1.037914467709066
 30
0.0
 10
1.638865373917006
 20
-1.084176439154851
 30
0.0
 10
1.537687359965964
 20
-1.15200724653319
 30
0.0
 10
1.478938253707482
 20
-1.173575309033166
 30
0.0
 10
1.368340087023359
 20
-1.188649165648811
 30
0.0
 10
1.31093246180066
 20
-1.184828025995695
 30
0.0
 10
1.257017608299373
 20
-1.168994388991213
 30
0.0
  0
SPLINE
  5
19ED7
330
19EA6
100
AcDbEntity
  8
0
100
AcDbSpline
210
0.0
220
0.0
230
1.0
 70
     8
 71
     3
 72
    18
 73
    14
 74
     0
 42
0.000000001
 43
0.0000000001
 40
0.028525742117437
 40
0.028525742117437
 40
0.028525742117437
 40
0.028525742117437
 40
0.0417123967319211
 40
0.0417123967319211
 40
0.0621425582382483
 40
0.0621425582382483
 40
0.0825727197445755
 40
0.0825727197445755
 40
0.1030028812509027
 40
0.1030028812509027
 40
0.1234330427572299
 40
0.1234330427572299
 40
0.1366196973717139
 40
0.1366196973717139
 40
0.1366196973717139
 40
0.1366196973717139
 10
1.257017608299373
 20
-1.168994388991213
 30
0.0
 10
1.212572578662662
 20
-1.155941836304517
 30
0.0
 10
1.167442820982028
 20
-1.147613491544391
 30
0.0
 10
1.056846689319522
 20
-1.137519885577466
 30
0.0
 10
0.9830801185813067
 20
-1.141273850507829
 30
0.0
 10
0.8403966967678586
 20
-1.172524294941498
 30
0.0
 10
0.7714767962263281
 20
-1.200035931215612
 30
0.0
 10
0.6535232037736725
 20
-1.268136469570036
 30
0.0
 10
0.5952374775898472
 20
-1.314067036128242
 30
0.0
 10
0.4968320879240116
 20
-1.422009281900744
 30
0.0
 10
0.4566977735602935
 20
-1.484016023644919
 30
0.0
 10
0.410141026912188
 20
-1.5848418862084
 30
0.0
 10
0.394788706205615
 20
-1.628089575206528
 30
0.0
 10
0.383870033598174
 20
-1.673106376287219
 30
0.0
  0
SPLINE
  5
19ED8
330
19EA6
100
AcDbEntity
  8
0
100
AcDbSpline
210
0.0
220
0.0
230
1.0
 70
     8
 71
     3
 72
    12
 73
     8
 74
     0
 42
0.000000001
 43
0.0000000001
 40
0.0189754275574596
 40
0.0189754275574596
 40
0.0189754275574596
 40
0.0189754275574596
 40
0.0352344202520849
 40
0.0352344202520849
 40
0.0526985041538133
 40
0.0526985041538133
 40
0.0701625880555416
 40
0.0701625880555416
 40
0.0701625880555416
 40
0.0701625880555416
 10
1.640887641897545
 20
-0.5041119872960067
 30
0.0
 10
1.681557400528371
 20
-0.5428868015671973
 30
0.0
 10
1.713570417150727
 20
-0.5906926935544324
 30
0.0
 10
1.755815157730637
 20
-0.6940104438226915
 30
0.0
 10
1.766511220824488
 20
-0.755672693542156
 30
0.0
 10
1.758357025451159
 20
-0.877210827617384
 30
0.0
 10
1.739506978977149
 20
-0.9370855322909356
 30
0.0
 10
1.710400172474268
 20
-0.9875000000000008
 30
0.0
  0
SPLINE
  5
19ED9
330
19EA6
100
AcDbEntity
  8
0
100
AcDbSpline
210
0.0
220
0.0
230
1.0
 70
     8
 71
     3
 72
    12
 73
     8
 74
     0
 42
0.000000001
 43
0.0000000001
 40
0.0701625880555412
 40
0.0701625880555412
 40
0.0701625880555412
 40
0.0701625880555412
 40
0.0876266719572695
 40
0.0876266719572695
 40
0.1050907558589977
 40
0.1050907558589977
 40
0.121349748553623
 40
0.121349748553623
 40
0.121349748553623
 40
0.121349748553623
 10
1.710400172474264
 20
0.9874999999999996
 30
0.0
 10
1.739506978977145
 20
0.9370855322909344
 30
0.0
 10
1.758357025451155
 20
0.8772108276173835
 30
0.0
 10
1.766511220824484
 20
0.7556726935421563
 30
0.0
 10
1.755815157730633
 20
0.6940104438226918
 30
0.0
 10
1.713570417150725
 20
0.5906926935544331
 30
0.0
 10
1.681557400528371
 20
0.542886801567196
 30
0.0
 10
1.640887641897545
 20
0.5041119872960053
 30
0.0
  0
SPLINE
  5
19EDA
330
19EA6
100
AcDbEntity
  8
0
100
AcDbSpline
210
0.0
220
0.0
230
1.0
 70
     8
 71
     3
 72
    18
 73
    14
 74
     0
 42
0.000000001
 43
0.0000000001
 40
0.0285257421174369
 40
0.0285257421174369
 40
0.0285257421174369
 40
0.0285257421174369
 40
0.0417123967319208
 40
0.0417123967319208
 40
0.0621425582382479
 40
0.0621425582382479
 40
0.082572719744575
 40
0.082572719744575
 40
0.1030028812509022
 40
0.1030028812509022
 40
0.1234330427572293
 40
0.1234330427572293
 40
0.1366196973717132
 40
0.1366196973717132
 40
0.1366196973717132
 40
0.1366196973717132
 10
1.640887641897545
 20
0.5041119872960053
 30
0.0
 10
1.607361284868276
 20
0.4721477389020106
 30
0.0
 10
1.577583847894219
 20
0.4372283946640059
 30
0.0
 10
1.513544462879819
 20
0.3464961380674506
 30
0.0
 10
1.479912206505321
 20
0.2807354313929131
 30
0.0
 10
1.435634174357709
 20
0.1415427411867422
 30
0.0
 10
1.425000000000003
 20
0.0681005383544232
 30
0.0
 10
1.425000000000003
 20
-0.0681005383544243
 30
0.0
 10
1.435634174357709
 20
-0.1415427411867434
 30
0.0
 10
1.479912206505321
 20
-0.2807354313929142
 30
0.0
 10
1.513544462879818
 20
-0.3464961380674516
 30
0.0
 10
1.577583847894219
 20
-0.4372283946640069
 30
0.0
 10
1.607361284868276
 20
-0.4721477389020118
 30
0.0
 10
1.640887641897545
 20
-0.5041119872960067
 30
0.0
  0
SPLINE
  5
19EDB
330
19EA6
100
AcDbEntity
  8
0
100
AcDbSpline
210
0.0
220
0.0
230
1.0
 70
     8
 71
     3
 72
    12
 73
     8
 74
     0
 42
0.000000001
 43
0.0000000001
 40
0.0189754275574595
 40
0.0189754275574595
 40
0.0189754275574595
 40
0.0189754275574595
 40
0.0352344202520848
 40
0.0352344202520848
 40
0.052698504153813
 40
0.052698504153813
 40
0.0701625880555412
 40
0.0701625880555412
 40
0.0701625880555412
 40
0.0701625880555412
 10
1.25701760829937
 20
1.168994388991214
 30
0.0
 10
1.310932461800658
 20
1.184828025995695
 30
0.0
 10
1.368340087023357
 20
1.188649165648809
 30
0.0
 10
1.47893825370748
 20
1.173575309033164
 30
0.0
 10
1.537687359965961
 20
1.152007246533188
 30
0.0
 10
1.638865373917003
 20
1.08417643915485
 30
0.0
 10
1.681293365971384
 20
1.037914467709064
 30
0.0
 10
1.710400172474264
 20
0.9874999999999996
 30
0.0
  0
SPLINE
  5
19EDC
330
19EA6
100
AcDbEntity
  8
0
100
AcDbSpline
210
0.0
220
0.0
230
1.0
 70
     8
 71
     3
 72
    12
 73
     8
 74
     0
 42
0.000000001
 43
0.0000000001
 40
0.0701625880555413
 40
0.0701625880555413
 40
0.0701625880555413
 40
0.0701625880555413
 40
0.0876266719572695
 40
0.0876266719572695
 40
0.1050907558589977
 40
0.1050907558589977
 40
0.121349748553623
 40
0.121349748553623
 40
0.121349748553623
 40
0.121349748553623
 10
-0.0000000000000012
 20
1.974999999999999
 30
0.0
 10
0.0582136130057596
 20
1.974999999999999
 30
0.0
 10
0.1194916515341507
 20
1.961387266772234
 30
0.0
 10
0.2288238608585216
 20
1.907679940075345
 30
0.0
 10
0.2768769040231518
 20
1.867585752855856
 30
0.0
 10
0.345230330127366
 20
1.779341859203243
 30
0.0
 10
0.3706249387277108
 20
1.727714827562891
 30
0.0
 10
0.3838700335981724
 20
1.67310637628722
 30
0.0
  0
SPLINE
  5
19EDD
330
19EA6
100
AcDbEntity
  8
0
100
AcDbSpline
210
0.0
220
0.0
230
1.0
 70
     8
 71
     3
 72
    18
 73
    14
 74
     0
 42
0.000000001
 43
0.0000000001
 40
0.028525742117437
 40
0.028525742117437
 40
0.028525742117437
 40
0.028525742117437
 40
0.0417123967319211
 40
0.0417123967319211
 40
0.0621425582382483
 40
0.0621425582382483
 40
0.0825727197445755
 40
0.0825727197445755
 40
0.1030028812509027
 40
0.1030028812509027
 40
0.1234330427572299
 40
0.1234330427572299
 40
0.1366196973717139
 40
0.1366196973717139
 40
0.1366196973717139
 40
0.1366196973717139
 10
0.3838700335981724
 20
1.67310637628722
 30
0.0
 10
0.3947887062056135
 20
1.628089575206528
 30
0.0
 10
0.4101410269121868
 20
1.5848418862084
 30
0.0
 10
0.4566977735602923
 20
1.484016023644919
 30
0.0
 10
0.4968320879240103
 20
1.422009281900744
 30
0.0
 10
0.595237477589846
 20
1.314067036128241
 30
0.0
 10
0.6535232037736714
 20
1.268136469570036
 30
0.0
 10
0.7714767962263269
 20
1.200035931215612
 30
0.0
 10
0.8403966967678575
 20
1.172524294941498
 30
0.0
 10
0.9830801185813058
 20
1.141273850507829
 30
0.0
 10
1.056846689319521
 20
1.137519885577466
 30
0.0
 10
1.167442820982027
 20
1.147613491544391
 30
0.0
 10
1.21257257866266
 20
1.155941836304517
 30
0.0
 10
1.25701760829937
 20
1.168994388991214
 30
0.0
  0
CIRCLE
  5
19EDE
330
19EA6
100
AcDbEntity
  8
0
100
AcDbCircle
 10
-0.0000000000000003
 20
-0.0000000000000003
 30
0.0
 40
1.975
  0
CIRCLE
  5
19EDF
330
19EA6
100
AcDbEntity
  8
0
100
AcDbCircle
 10
-0.0000000000000003
 20
-0.0000000000000003
 30
0.0
 40
3.5
  0
ENDBLK
  5
19EA8
330
19EA6
100
AcDbEntity
  8
0
100
AcDbBlockEnd
  0
BLOCK
  5
19F49
330
19F48
100
AcDbEntity
  8
0
100
AcDbBlockBegin
  2
TTFA442X35T-20-ISO
 70
     0
 10
0.0
 20
0.0
 30
0.0
  3
TTFA442X35T-20-ISO
  1

  0
LINE
  5
19F4B
330
19F48
100
AcDbEntity
  8
0
100
AcDbLine
 10
2.190369714152216
 20
13.12976251062964
 30
0.0
 11
2.220008670869595
 21
13.13454652730298
 31
0.0
  0
LINE
  5
19F4C
330
19F48
100
AcDbEntity
  8
0
100
AcDbLine
 10
2.049938950462261
 20
13.17905883957248
 30
0.0
 11
2.079796970384891
 21
13.16182030373268
 31
0.0
  0
LINE
  5
19F4D
330
19F48
100
AcDbEntity
  8
0
100
AcDbLine
 10
1.809532789035248
 20
13.06843797945252
 30
0.0
 11
1.840745209867326
 21
13.07346341454373
 31
0.0
  0
LINE
  5
19F4E
330
19F48
100
AcDbEntity
  8
0
100
AcDbLine
 10
1.669078590676824
 20
13.11774783840752
 30
0.0
 11
1.698652161616778
 21
13.10067352926443
 31
0.0
  0
LINE
  5
19F4F
330
19F48
100
AcDbEntity
  8
0
100
AcDbLine
 10
1.445512761033381
 20
13.06009816427753
 30
0.0
 11
1.373652315790846
 21
13.10158681168239
 31
0.0
  0
LINE
  5
19F50
330
19F48
100
AcDbEntity
  8
0
100
AcDbLine
 10
1.373652315790846
 20
13.10158681168239
 30
0.0
 11
1.669078590676824
 21
13.14952924868357
 31
0.0
  0
LINE
  5
19F51
330
19F48
100
AcDbEntity
  8
0
100
AcDbLine
 10
1.669078590676824
 20
13.09593322241338
 30
0.0
 11
1.669078590676824
 21
13.14952924868357
 31
0.0
  0
LINE
  5
19F52
330
19F48
100
AcDbEntity
  8
0
100
AcDbLine
 10
1.669078590676824
 20
13.14952924868357
 30
0.0
 11
1.448706558599717
 21
13.27676110072516
 31
0.0
  0
LINE
  5
19F53
330
19F48
100
AcDbEntity
  8
0
100
AcDbLine
 10
1.448706558599717
 20
13.27676110072516
 30
0.0
 11
1.510985611143247
 21
13.31271792847604
 31
0.0
  0
LINE
  5
19F54
330
19F48
100
AcDbEntity
  8
0
100
AcDbLine
 10
1.510985611143247
 20
13.24080427297426
 30
0.0
 11
1.510985611143247
 21
13.31271792847604
 31
0.0
  0
LINE
  5
19F55
330
19F48
100
AcDbEntity
  8
0
100
AcDbLine
 10
1.510985611143247
 20
13.31271792847604
 30
0.0
 11
1.766489416450039
 21
13.16520273770319
 31
0.0
  0
LINE
  5
19F56
330
19F48
100
AcDbEntity
  8
0
100
AcDbLine
 10
1.766489416450039
 20
13.09328908220141
 30
0.0
 11
1.766489416450039
 21
13.16520273770319
 31
0.0
  0
LINE
  5
19F57
330
19F48
100
AcDbEntity
  8
0
100
AcDbLine
 10
1.766489416450039
 20
13.16520273770319
 30
0.0
 11
2.049938950462262
 21
13.21084024984854
 31
0.0
  0
LINE
  5
19F58
330
19F48
100
AcDbEntity
  8
0
100
AcDbLine
 10
2.049938950462262
 20
13.15688803143857
 30
0.0
 11
2.049938950462262
 21
13.21084024984854
 31
0.0
  0
LINE
  5
19F59
330
19F48
100
AcDbEntity
  8
0
100
AcDbLine
 10
2.049938950462262
 20
13.21084024984854
 30
0.0
 11
1.692233623032753
 21
13.41736151693053
 31
0.0
  0
LINE
  5
19F5A
330
19F48
100
AcDbEntity
  8
0
100
AcDbLine
 10
1.692233623032753
 20
13.41736151693053
 30
0.0
 11
1.754512675576283
 21
13.45331834468141
 31
0.0
  0
LINE
  5
19F5B
330
19F48
100
AcDbEntity
  8
0
100
AcDbLine
 10
1.754512675576283
 20
13.38140468917963
 30
0.0
 11
1.754512675576283
 21
13.45331834468141
 31
0.0
  0
LINE
  5
19F5C
330
19F48
100
AcDbEntity
  8
0
100
AcDbLine
 10
1.754512675576283
 20
13.45331834468141
 30
0.0
 11
2.147349776235476
 21
13.22651373886815
 31
0.0
  0
LINE
  5
19F5D
330
19F48
100
AcDbEntity
  8
0
100
AcDbLine
 10
2.147349776235476
 20
13.15460008336638
 30
0.0
 11
2.147349776235476
 21
13.22651373886815
 31
0.0
  0
LINE
  5
19F5E
330
19F48
100
AcDbEntity
  8
0
100
AcDbLine
 10
2.147349776235476
 20
13.22651373886815
 30
0.0
 11
2.444372949904622
 21
13.27445617586933
 31
0.0
  0
LINE
  5
19F5F
330
19F48
100
AcDbEntity
  8
0
100
AcDbLine
 10
2.444372949904622
 20
13.22077868928064
 30
0.0
 11
2.444372949904622
 21
13.27445617586933
 31
0.0
  0
LINE
  5
19F60
330
19F48
100
AcDbEntity
  8
0
100
AcDbLine
 10
2.444372949904622
 20
13.27445617586933
 30
0.0
 11
2.517031844538742
 21
13.2325065434933
 31
0.0
  0
LINE
  5
19F61
330
19F48
100
AcDbEntity
  8
0
100
AcDbLine
 10
2.517031844538742
 20
13.2325065434933
 30
0.0
 11
2.220008670869595
 21
13.18456410649212
 31
0.0
  0
LINE
  5
19F62
330
19F48
100
AcDbEntity
  8
0
100
AcDbLine
 10
2.220008670869595
 20
13.11265045099035
 30
0.0
 11
2.220008670869595
 21
13.18456410649212
 31
0.0
  0
LINE
  5
19F63
330
19F48
100
AcDbEntity
  8
0
100
AcDbLine
 10
2.220008670869595
 20
13.18456410649212
 30
0.0
 11
2.438783804163536
 21
13.05825422439287
 31
0.0
  0
LINE
  5
19F64
330
19F48
100
AcDbEntity
  8
0
100
AcDbLine
 10
2.438783804163536
 20
13.05825422439287
 30
0.0
 11
2.376504751620006
 21
13.02229739664199
 31
0.0
  0
LINE
  5
19F65
330
19F48
100
AcDbEntity
  8
0
100
AcDbLine
 10
2.376504751620006
 20
13.02229739664199
 30
0.0
 11
2.122597845096381
 21
13.16889061747251
 31
0.0
  0
LINE
  5
19F66
330
19F48
100
AcDbEntity
  8
0
100
AcDbLine
 10
2.122597845096381
 20
13.16889061747251
 30
0.0
 11
1.840745209867326
 21
13.12233113538483
 31
0.0
  0
LINE
  5
19F67
330
19F48
100
AcDbEntity
  8
0
100
AcDbLine
 10
1.840745209867326
 20
13.05041747988305
 30
0.0
 11
1.840745209867326
 21
13.12233113538483
 31
0.0
  0
LINE
  5
19F68
330
19F48
100
AcDbEntity
  8
0
100
AcDbLine
 10
1.840745209867326
 20
13.12233113538483
 30
0.0
 11
2.1952567397305
 21
12.9176538081875
 31
0.0
  0
LINE
  5
19F69
330
19F48
100
AcDbEntity
  8
0
100
AcDbLine
 10
2.1952567397305
 20
12.9176538081875
 30
0.0
 11
2.132977687186969
 21
12.88169698043662
 31
0.0
  0
LINE
  5
19F6A
330
19F48
100
AcDbEntity
  8
0
100
AcDbLine
 10
2.132977687186969
 20
12.88169698043662
 30
0.0
 11
1.741737485310943
 21
13.10757961630754
 31
0.0
  0
LINE
  5
19F6B
330
19F48
100
AcDbEntity
  8
0
100
AcDbLine
 10
1.741737485310943
 20
13.10757961630754
 30
0.0
 11
1.445512761033381
 21
13.06009816427753
 31
0.0
  0
SPLINE
  5
19F6C
330
19F48
100
AcDbEntity
  8
0
100
AcDbSpline
210
0.0
220
0.0
230
1.0
 70
     8
 71
     2
 72
     8
 73
     5
 74
     0
 42
0.000000001
 43
0.0000000001
 40
0.0
 40
0.0
 40
0.0
 40
1.0
 40
2.0
 40
3.0
 40
3.0
 40
3.0
 10
-1.584792279470386
 20
15.35795265163813
 30
0.0
 10
-1.547065545155883
 20
15.39840408346064
 30
0.0
 10
-1.531974851430081
 20
15.46125938521563
 30
0.0
 10
-1.582636466080986
 20
15.53344963277581
 30
0.0
 10
-1.63599284746864
 20
15.56425495393296
 30
0.0
  0
LINE
  5
19F6D
330
19F48
100
AcDbEntity
  8
0
100
AcDbLine
 10
-1.477540563347727
 20
15.32279102243855
 30
0.0
 11
-1.584792279470386
 21
15.35795265163812
 31
0.0
  0
SPLINE
  5
19F6E
330
19F48
100
AcDbEntity
  8
0
100
AcDbSpline
210
0.0
220
0.0
230
1.0
 70
     8
 71
     2
 72
     8
 73
     5
 74
     0
 42
0.000000001
 43
0.0000000001
 40
0.0
 40
0.0
 40
0.0
 40
1.0
 40
2.0
 40
3.0
 40
3.0
 40
3.0
 10
-1.556227752060834
 20
15.61092968295894
 30
0.0
 10
-1.479696376737127
 20
15.56674427281435
 30
0.0
 10
-1.405320814802821
 20
15.46654918783858
 30
0.0
 10
-1.424184181960072
 20
15.37475555408749
 30
0.0
 10
-1.477540563347727
 20
15.32279102243856
 30
0.0
  0
LINE
  5
19F6F
330
19F48
100
AcDbEntity
  8
0
100
AcDbLine
 10
-1.556227752060834
 20
15.50723461718111
 30
0.0
 11
-1.556227752060834
 21
15.61092968295893
 31
0.0
  0
SPLINE
  5
19F70
330
19F48
100
AcDbEntity
  8
0
100
AcDbSpline
210
0.0
220
0.0
230
1.0
 70
     8
 71
     3
 72
    10
 73
     6
 74
     0
 42
0.000000001
 43
0.0000000001
 40
-0.0411688473427017
 40
-0.0411688473427017
 40
-0.0411688473427017
 40
-0.0411688473427017
 40
-0.0326535033811323
 40
-0.0326535033811323
 40
-0.0265677847721732
 40
-0.0265677847721732
 40
-0.0265677847721732
 40
-0.0265677847721732
 10
-1.556227752060834
 20
15.50723461718111
 30
0.0
 10
-1.522499062691724
 20
15.48776134929444
 30
0.0
 10
-1.492460621917786
 20
15.46624842199663
 30
0.0
 10
-1.451139876252917
 20
15.42549027548117
 30
0.0
 10
-1.43654486389317
 20
15.40694899156072
 30
0.0
 10
-1.426680241592596
 20
15.38788453395365
 30
0.0
  0
SPLINE
  5
19F71
330
19F48
100
AcDbEntity
  8
0
100
AcDbSpline
210
0.0
220
0.0
230
1.0
 70
     8
 71
     2
 72
     8
 73
     5
 74
     0
 42
0.000000001
 43
0.0000000001
 40
0.0
 40
0.0
 40
0.0
 40
1.0
 40
2.0
 40
3.0
 40
3.0
 40
3.0
 10
-2.279503144204594
 20
15.60221706687411
 30
0.0
 10
-2.176024101513386
 20
15.66196072002736
 30
0.0
 10
-1.910859054617164
 20
15.71548107597715
 30
0.0
 10
-1.661862608141442
 20
15.6719179955529
 30
0.0
 10
-1.556227752060834
 20
15.61092968295896
 30
0.0
  0
LINE
  5
19F72
330
19F48
100
AcDbEntity
  8
0
100
AcDbLine
 10
-2.279503144204594
 20
15.49852200109626
 30
0.0
 11
-2.279503144204594
 21
15.60221706687408
 31
0.0
  0
SPLINE
  5
19F73
330
19F48
100
AcDbEntity
  8
0
100
AcDbSpline
210
0.0
220
0.0
230
1.0
 70
     8
 71
     3
 72
     8
 73
     4
 74
     0
 42
0.000000001
 43
0.0000000001
 40
-0.1930096882932511
 40
-0.1930096882932511
 40
-0.1930096882932511
 40
-0.1930096882932511
 40
-0.1489458532071738
 40
-0.1489458532071738
 40
-0.1489458532071738
 40
-0.1489458532071738
 10
-2.279503144204595
 20
15.49852200109626
 30
0.0
 10
-2.252450215925364
 20
15.51414101652064
 30
0.0
 10
-2.223378613622301
 20
15.52837342649717
 30
0.0
 10
-2.192128690522054
 20
15.5410131421671
 30
0.0
  0
SPLINE
  5
19F74
330
19F48
100
AcDbEntity
  8
0
100
AcDbSpline
210
0.0
220
0.0
230
1.0
 70
     8
 71
     3
 72
     8
 73
     4
 74
     0
 42
0.000000001
 43
0.0000000001
 40
-0.0023847634992337
 40
-0.0023847634992337
 40
-0.0023847634992337
 40
-0.0023847634992337
 40
0.0
 40
0.0
 40
0.0
 40
0.0
 10
-1.573342876958868
 20
15.51679192460603
 30
0.0
 10
-1.56755326043787
 20
15.51366701726485
 30
0.0
 10
-1.561848693533615
 20
15.51047986925351
 30
0.0
 10
-1.556227752060834
 20
15.50723461718111
 30
0.0
  0
SPLINE
  5
19F75
330
19F48
100
AcDbEntity
  8
0
100
AcDbSpline
210
0.0
220
0.0
230
1.0
 70
     8
 71
     2
 72
     8
 73
     5
 74
     0
 42
0.000000001
 43
0.0000000001
 40
0.0
 40
0.0
 40
0.0
 40
1.0
 40
2.0
 40
3.0
 40
3.0
 40
3.0
 10
-2.280581050899295
 20
15.18463382452166
 30
0.0
 10
-2.384599046937853
 20
15.24468864253509
 30
0.0
 10
-2.46544204904036
 20
15.39467010513857
 30
0.0
 10
-2.383521140243153
 20
15.54216224886067
 30
0.0
 10
-2.279503144204594
 20
15.60221706687409
 30
0.0
  0
SPLINE
  5
19F76
330
19F48
100
AcDbEntity
  8
0
100
AcDbSpline
210
0.0
220
0.0
230
1.0
 70
     8
 71
     3
 72
    10
 73
     6
 74
     0
 42
0.000000001
 43
0.0000000001
 40
-0.0330122141399771
 40
-0.0330122141399771
 40
-0.0330122141399771
 40
-0.0330122141399771
 40
-0.0234660025784388
 40
-0.0234660025784388
 40
0.0
 40
0.0
 40
0.0
 40
0.0
 10
-2.43508695378069
 20
15.34185194797784
 30
0.0
 10
-2.429723159818425
 20
15.35581224567644
 30
0.0
 10
-2.421612321539172
 20
15.37142926772633
 30
0.0
 10
-2.379543481807952
 20
15.43014021408572
 30
0.0
 10
-2.334813042706445
 20
15.46658881630736
 30
0.0
 10
-2.279503144204595
 20
15.49852200109626
 30
0.0
  0
SPLINE
  5
19F77
330
19F48
100
AcDbEntity
  8
0
100
AcDbSpline
210
0.0
220
0.0
230
1.0
 70
     8
 71
     2
 72
     7
 73
     4
 74
     0
 42
0.000000001
 43
0.0000000001
 40
0.0
 40
0.0
 40
0.0
 40
1.0
 40
2.0
 40
2.0
 40
2.0
 10
-1.87744394708146
 20
15.07946010178311
 30
0.0
 10
-2.001403216971971
 20
15.08755038814761
 30
0.0
 10
-2.203510722228238
 20
15.14013724951688
 30
0.0
 10
-2.280581050899295
 20
15.18463382452165
 30
0.0
  0
LINE
  5
19F78
330
19F48
100
AcDbEntity
  8
0
100
AcDbLine
 10
-1.615512620269339
 20
15.23068622382728
 30
0.0
 11
-1.87744394708146
 21
15.07946010178311
 31
0.0
  0
LINE
  5
19F79
330
19F48
100
AcDbEntity
  8
0
100
AcDbLine
 10
-1.914631728048614
 20
15.40338272122341
 30
0.0
 11
-1.615512620269339
 21
15.23068622382728
 31
0.0
  0
LINE
  5
19F7A
330
19F48
100
AcDbEntity
  8
0
100
AcDbLine
 10
-1.914631728048614
 20
15.3069216145697
 30
0.0
 11
-1.914631728048614
 21
15.40338272122341
 31
0.0
  0
LINE
  5
19F7B
330
19F48
100
AcDbEntity
  8
0
100
AcDbLine
 10
-1.790672458158102
 20
15.22811973760575
 30
0.0
 11
-1.705315181480031
 21
15.17883869093837
 31
0.0
  0
LINE
  5
19F7C
330
19F48
100
AcDbEntity
  8
0
100
AcDbLine
 10
-1.998169496887871
 20
15.35515216789656
 30
0.0
 11
-1.914631728048614
 21
15.40338272122341
 31
0.0
  0
LINE
  5
19F7D
330
19F48
100
AcDbEntity
  8
0
100
AcDbLine
 10
-1.790672458158103
 20
15.23535369672988
 30
0.0
 11
-1.998169496887871
 21
15.35515216789656
 31
0.0
  0
LINE
  5
19F7E
330
19F48
100
AcDbEntity
  8
0
100
AcDbLine
 10
-1.790672458158103
 20
15.13165863095206
 30
0.0
 11
-1.790672458158103
 21
15.23535369672988
 31
0.0
  0
LINE
  5
19F7F
330
19F48
100
AcDbEntity
  8
0
100
AcDbLine
 10
-1.921638121564164
 20
15.15974063570779
 30
0.0
 11
-1.790672458158103
 21
15.23535369672988
 31
0.0
  0
LINE
  5
19F80
330
19F48
100
AcDbEntity
  8
0
100
AcDbLine
 10
-1.921638121564164
 20
15.0829919181331
 30
0.0
 11
-1.921638121564164
 21
15.15974063570779
 31
0.0
  0
LINE
  5
19F81
330
19F48
100
AcDbEntity
  8
0
100
AcDbLine
 10
-1.88070804874769
 20
15.07967655848851
 30
0.0
 11
-1.790672458158103
 21
15.13165863095206
 31
0.0
  0
SPLINE
  5
19F82
330
19F48
100
AcDbEntity
  8
0
100
AcDbSpline
210
0.0
220
0.0
230
1.0
 70
     8
 71
     2
 72
     7
 73
     4
 74
     0
 42
0.000000001
 43
0.0000000001
 40
0.0
 40
0.0
 40
0.0
 40
1.0
 40
2.0
 40
2.0
 40
2.0
 10
-2.201354908838838
 20
15.23659835617057
 30
0.0
 10
-2.140453180588283
 20
15.201436726971
 30
0.0
 10
-1.977689269688569
 20
15.16160762486883
 30
0.0
 10
-1.921638121564164
 20
15.15974063570779
 30
0.0
  0
LINE
  5
19F83
330
19F48
100
AcDbEntity
  8
0
100
AcDbLine
 10
-2.201354908838837
 20
15.14622710915559
 30
0.0
 11
-2.201354908838837
 21
15.23659835617057
 31
0.0
  0
SPLINE
  5
19F84
330
19F48
100
AcDbEntity
  8
0
100
AcDbSpline
210
0.0
220
0.0
230
1.0
 70
     8
 71
     2
 72
     8
 73
     5
 74
     0
 42
0.000000001
 43
0.0000000001
 40
0.0
 40
0.0
 40
0.0
 40
1.0
 40
2.0
 40
3.0
 40
3.0
 40
3.0
 10
-2.177102008208086
 20
15.54994137036499
 30
0.0
 10
-2.271418843994344
 20
15.49548751983468
 30
0.0
 10
-2.333937432286949
 20
15.38409049989267
 30
0.0
 10
-2.270879890646994
 20
15.27673862313292
 30
0.0
 10
-2.201354908838838
 20
15.23659835617058
 30
0.0
  0
SPLINE
  5
19F85
330
19F48
100
AcDbEntity
  8
0
100
AcDbSpline
210
0.0
220
0.0
230
1.0
 70
     8
 71
     3
 72
    12
 73
     8
 74
     0
 42
0.000000001
 43
0.0000000001
 40
-0.0318643190358512
 40
-0.0318643190358512
 40
-0.0318643190358512
 40
-0.0318643190358512
 40
-0.0318340221300762
 40
-0.0318340221300762
 40
-0.0168180803210339
 40
-0.0168180803210339
 40
-0.0085958170063808
 40
-0.0085958170063808
 40
-0.0085958170063808
 40
-0.0085958170063808
 10
-2.318240705730827
 20
15.28113579544318
 30
0.0
 10
-2.318240705365943
 20
15.28109556552419
 30
0.0
 10
-2.318240679703642
 20
15.28105532555044
 30
0.0
 10
-2.318215351307358
 20
15.26106610875049
 30
0.0
 10
-2.31192167869272
 20
15.23881806777249
 30
0.0
 10
-2.282524121591306
 20
15.19744197108057
 30
0.0
 10
-2.269880850875587
 20
15.18366199896227
 30
0.0
 10
-2.255041778518767
 20
15.17072593493709
 30
0.0
  0
SPLINE
  5
19F86
330
19F48
100
AcDbEntity
  8
0
100
AcDbSpline
210
0.0
220
0.0
230
1.0
 70
     8
 71
     2
 72
     6
 73
     3
 74
     0
 42
0.000000001
 43
0.0000000001
 40
0.0
 40
0.0
 40
0.0
 40
1.0
 40
1.0
 40
1.0
 10
-2.007870657140172
 20
15.61653065044205
 30
0.0
 10
-2.10057063288438
 20
15.59412678050958
 30
0.0
 10
-2.177102008208086
 20
15.54994137036498
 30
0.0
  0
SPLINE
  5
19F87
330
19F48
100
AcDbEntity
  8
0
100
AcDbSpline
210
0.0
220
0.0
230
1.0
 70
     8
 71
     2
 72
     8
 73
     5
 74
     0
 42
0.000000001
 43
0.0000000001
 40
0.0
 40
0.0
 40
0.0
 40
1.0
 40
2.0
 40
3.0
 40
3.0
 40
3.0
 10
-1.63599284746864
 20
15.56425495393296
 30
0.0
 10
-1.700128295803295
 20
15.60128357229357
 30
0.0
 10
-1.832710819251407
 20
15.63302238803123
 30
0.0
 10
-1.953975322405167
 20
15.62897724484898
 30
0.0
 10
-2.007870657140172
 20
15.61653065044206
 30
0.0
  0
LINE
  5
19F88
330
19F48
100
AcDbEntity
  8
0
100
AcDbLine
 10
-1.537788479340841
 20
15.34254282650081
 30
0.0
 11
-1.537788479340841
 21
15.44450339582367
 31
0.0
  0
LINE
  5
19F89
330
19F48
100
AcDbEntity
  8
0
100
AcDbLine
 10
-2.318240705183441
 20
15.28113579544316
 30
0.0
 11
-2.318240705183441
 21
15.384830861221
 31
0.0
  0
SPLINE
  5
19F8A
330
19F48
100
AcDbEntity
  8
0
100
AcDbSpline
210
0.0
220
0.0
230
1.0
 70
     8
 71
     3
 72
    12
 73
     8
 74
     0
 42
0.000000001
 43
0.0000000001
 40
0.0701625880555413
 40
0.0701625880555413
 40
0.0701625880555413
 40
0.0701625880555413
 40
0.0876266719572695
 40
0.0876266719572695
 40
0.1050907558589977
 40
0.1050907558589977
 40
0.121349748553623
 40
0.121349748553623
 40
0.121349748553623
 40
0.121349748553623
 10
-0.5111676140774751
 20
15.18747943719898
 30
0.0
 10
-0.4549375818336138
 20
15.19617825346019
 30
0.0
 10
-0.3922243072194581
 20
15.19618874584891
 30
0.0
 10
-0.2727170235771079
 20
15.17628503697492
 30
0.0
 10
-0.2159242089022986
 20
15.15635552319142
 30
0.0
 10
-0.1270606690215992
 20
15.10649848624292
 30
0.0
 10
-0.0891693016953905
 20
15.07498765564913
 30
0.0
 10
-0.0622418152746661
 20
15.03927648867533
 30
0.0
  0
SPLINE
  5
19F8B
330
19F48
100
AcDbEntity
  8
0
100
AcDbSpline
210
0.0
220
0.0
230
1.0
 70
     8
 71
     3
 72
    18
 73
    14
 74
     0
 42
0.000000001
 43
0.0000000001
 40
0.028525742117437
 40
0.028525742117437
 40
0.028525742117437
 40
0.028525742117437
 40
0.0417123967319211
 40
0.0417123967319211
 40
0.0621425582382483
 40
0.0621425582382483
 40
0.0825727197445755
 40
0.0825727197445755
 40
0.1030028812509027
 40
0.1030028812509027
 40
0.1234330427572299
 40
0.1234330427572299
 40
0.1366196973717141
 40
0.1366196973717141
 40
0.1366196973717141
 40
0.1366196973717141
 10
-0.0622418152746661
 20
15.03927648867533
 30
0.0
 10
-0.0400439819450689
 20
15.00983777612323
 30
0.0
 10
-0.0140214533117315
 20
14.98249471039567
 30
0.0
 10
0.0570445641339891
 20
14.9210256824118
 30
0.0
 10
0.1118598605864546
 20
14.88564547110403
 30
0.0
 10
0.2348496768877853
 20
14.83097175251593
 30
0.0
 10
0.3030370704903675
 20
14.81174929726955
 30
0.0
 10
0.4345972080518224
 20
14.79139687315954
 30
0.0
 10
0.5082892553598346
 20
14.78867050251211
 30
0.0
 10
0.6541990676600928
 20
14.80174530378556
 30
0.0
 10
0.7264237010715397
 20
14.81747236954772
 30
0.0
 10
0.8306389434740196
 20
14.85182529226528
 30
0.0
 10
0.872075407713811
 20
14.86873241547685
 30
0.0
 10
0.9116277604675719
 20
14.88861834099683
 30
0.0
  0
SPLINE
  5
19F8C
330
19F48
100
AcDbEntity
  8
0
100
AcDbSpline
210
0.0
220
0.0
230
1.0
 70
     8
 71
     3
 72
    12
 73
     8
 74
     0
 42
0.000000001
 43
0.0000000001
 40
0.0189754275574595
 40
0.0189754275574595
 40
0.0189754275574595
 40
0.0189754275574595
 40
0.0352344202520848
 40
0.0352344202520848
 40
0.052698504153813
 40
0.052698504153813
 40
0.0701625880555413
 40
0.0701625880555413
 40
0.0701625880555413
 40
0.0701625880555413
 10
0.9116277604675719
 20
14.88861834099683
 30
0.0
 10
0.9596074630750571
 20
14.9127413254995
 30
0.0
 10
1.014069987187363
 20
14.92996495936633
 30
0.0
 10
1.124801013903054
 20
14.94894460940479
 30
0.0
 10
1.187130518250477
 20
14.95044583630257
 30
0.0
 10
1.302416879772619
 20
14.93402684186158
 30
0.0
 10
1.355372652329691
 20
14.91612228560166
 30
0.0
 10
1.396535892843434
 20
14.89235667761033
 30
0.0
  0
ELLIPSE
  5
19F8D
330
19F48
100
AcDbEntity
  8
0
100
AcDbEllipse
 10
0.0000000000000037
 20
14.0860663039442
 30
0.0
 11
1.974999999999999
 21
-0.0000000000000002
 31
0.0
210
0.0
220
0.0
230
1.0
 40
0.5773502691896257
 41
0.7853981633974492
 42
1.832595714594045
  0
SPLINE
  5
19F8E
330
19F48
100
AcDbEntity
  8
0
100
AcDbSpline
210
0.0
220
0.0
230
1.0
 70
     8
 71
     3
 72
    12
 73
     8
 74
     0
 42
0.000000001
 43
0.0000000001
 40
0.0701625880555413
 40
0.0701625880555413
 40
0.0701625880555413
 40
0.0701625880555413
 40
0.0876266719572696
 40
0.0876266719572696
 40
0.1050907558589978
 40
0.1050907558589978
 40
0.1213497485536232
 40
0.1213497485536232
 40
0.1213497485536232
 40
0.1213497485536232
 10
-1.907703506920906
 20
14.38118906353285
 30
0.0
 10
-1.892636715190787
 20
14.41365348778539
 30
0.0
 10
-1.863627901182032
 20
14.44423800971508
 30
0.0
 10
-1.78345334924828
 20
14.49089491269979
 30
0.0
 10
-1.732288295582766
 20
14.50695135502973
 30
0.0
 10
-1.629360071217623
 20
14.52102490616318
 30
0.0
 10
-1.572919579672872
 20
14.52095802852638
 30
0.0
 10
-1.516743783445386
 20
14.51294795576864
 30
0.0
  0
SPLINE
  5
19F8F
330
19F48
100
AcDbEntity
  8
0
100
AcDbSpline
210
0.0
220
0.0
230
1.0
 70
     8
 71
     3
 72
    18
 73
    14
 74
     0
 42
0.000000001
 43
0.0000000001
 40
0.028525742117437
 40
0.028525742117437
 40
0.028525742117437
 40
0.028525742117437
 40
0.0417123967319211
 40
0.0417123967319211
 40
0.0621425582382483
 40
0.0621425582382483
 40
0.0825727197445755
 40
0.0825727197445755
 40
0.1030028812509027
 40
0.1030028812509027
 40
0.1234330427572299
 40
0.1234330427572299
 40
0.136619697371714
 40
0.136619697371714
 40
0.136619697371714
 40
0.136619697371714
 10
-1.516743783445386
 20
14.51294795576864
 30
0.0
 10
-1.470434932246583
 20
14.50634480472601
 30
0.0
 10
-1.424687399530591
 20
14.50292509278156
 30
0.0
 10
-1.31524732221211
 20
14.50162476305242
 30
0.0
 10
-1.244965884037913
 20
14.50794346328687
 30
0.0
 10
-1.115232492112358
 20
14.53751081410774
 30
0.0
 10
-1.055781515663694
 20
14.56083448221177
 30
0.0
 10
-0.9594728107179586
 20
14.61643833893749
 30
0.0
 10
-0.9150608278706011
 20
14.65307997834185
 30
0.0
 10
-0.8479460295233918
 20
14.73716298316446
 30
0.0
 10
-0.8252277844472185
 20
14.78453767508916
 30
0.0
 10
-0.8063530739421343
 20
14.85992058210924
 30
0.0
 10
-0.8027171964475698
 20
14.89185181923226
 30
0.0
 10
-0.8038217740565221
 20
14.92455366980051
 30
0.0
  0
SPLINE
  5
19F90
330
19F48
100
AcDbEntity
  8
0
100
AcDbSpline
210
0.0
220
0.0
230
1.0
 70
     8
 71
     3
 72
    12
 73
     8
 74
     0
 42
0.000000001
 43
0.0000000001
 40
0.0189754275574595
 40
0.0189754275574595
 40
0.0189754275574595
 40
0.0189754275574595
 40
0.0352344202520847
 40
0.0352344202520847
 40
0.052698504153813
 40
0.052698504153813
 40
0.0701625880555413
 40
0.0701625880555413
 40
0.0701625880555413
 40
0.0701625880555413
 10
-0.8038217740565221
 20
14.92455366980051
 30
0.0
 10
-0.8051617020631914
 20
14.96422324583678
 30
0.0
 10
-0.7939944527982492
 20
15.00332347082936
 30
0.0
 10
-0.7508093135001457
 20
15.07360850953909
 30
0.0
 10
-0.7147707773259553
 20
15.10789908327741
 30
0.0
 10
-0.6230644517050008
 20
15.16047765121745
 30
0.0
 10
-0.567397646321337
 20
15.17878062093777
 30
0.0
 10
-0.5111676140774751
 20
15.18747943719898
 30
0.0
  0
ELLIPSE
  5
19F91
330
19F48
100
AcDbEntity
  8
0
100
AcDbEllipse
 10
0.0000000000000037
 20
14.0860663039442
 30
0.0
 11
-1.974999999999999
 21
0.0000000000000002
 31
0.0
210
0.0
220
0.0
230
1.0
 40
0.5773502691896259
 41
4.974188368183839
 42
6.021385919380437
  0
SPLINE
  5
19F92
330
19F48
100
AcDbEntity
  8
0
100
AcDbSpline
210
0.0
220
0.0
230
1.0
 70
     8
 71
     3
 72
     8
 73
     4
 74
     0
 42
0.000000001
 43
0.0000000001
 40
0.1208309966638754
 40
0.1208309966638754
 40
0.1208309966638754
 40
0.1208309966638754
 40
0.1213497485536227
 40
0.1213497485536227
 40
0.1213497485536227
 40
0.1213497485536227
 10
-1.457268808394891
 20
13.52056038822729
 30
0.0
 10
-1.456357442842426
 20
13.52122229002813
 30
0.0
 10
-1.45543515119559
 20
13.52187977024819
 30
0.0
 10
-1.454501968170716
 20
13.52253270522993
 30
0.0
  0
SPLINE
  5
19F93
330
19F48
100
AcDbEntity
  8
0
100
AcDbSpline
210
0.0
220
0.0
230
1.0
 70
     8
 71
     3
 72
    18
 73
    14
 74
     0
 42
0.000000001
 43
0.0000000001
 40
0.028525742117437
 40
0.028525742117437
 40
0.028525742117437
 40
0.028525742117437
 40
0.0417123967319211
 40
0.0417123967319211
 40
0.0621425582382483
 40
0.0621425582382483
 40
0.0825727197445755
 40
0.0825727197445755
 40
0.1030028812509027
 40
0.1030028812509027
 40
0.1234330427572299
 40
0.1234330427572299
 40
0.136619697371714
 40
0.136619697371714
 40
0.136619697371714
 40
0.136619697371714
 10
-1.454501968170716
 20
13.52253270522993
 30
0.0
 10
-1.430390950301511
 20
13.53940284387665
 30
0.0
 10
-1.410665946218856
 20
13.55780731086507
 30
0.0
 10
-1.372291886346095
 20
13.60577836019968
 30
0.0
 10
-1.356825744624364
 20
13.64067958706611
 30
0.0
 10
-1.350082169000139
 20
13.71573926040357
 30
0.0
 10
-1.358818586154058
 20
13.75596778160585
 30
0.0
 10
-1.394070018769777
 20
13.83192406244158
 30
0.0
 10
-1.423350083230432
 20
13.8736096746415
 30
0.0
 10
-1.502145097183481
 20
13.95379927426217
 30
0.0
 10
-1.551651485518754
 20
13.9922445851005
 30
0.0
 10
-1.63699201741615
 20
14.04547221832314
 30
0.0
 10
-1.674792604161376
 20
14.06601521902928
 30
0.0
 10
-1.715449534524089
 20
14.0847965669403
 30
0.0
  0
SPLINE
  5
19F94
330
19F48
100
AcDbEntity
  8
0
100
AcDbSpline
210
0.0
220
0.0
230
1.0
 70
     8
 71
     3
 72
    12
 73
     8
 74
     0
 42
0.000000001
 43
0.0000000001
 40
0.0189754275574596
 40
0.0189754275574596
 40
0.0189754275574596
 40
0.0189754275574596
 40
0.0352344202520848
 40
0.0352344202520848
 40
0.0526985041538131
 40
0.0526985041538131
 40
0.0701625880555413
 40
0.0701625880555413
 40
0.0701625880555413
 40
0.0701625880555413
 10
-1.715449534524089
 20
14.0847965669403
 30
0.0
 10
-1.764769165138244
 20
14.1075796234363
 30
0.0
 10
-1.808064439985608
 20
14.13597050656807
 30
0.0
 10
-1.875610327403196
 20
14.19813529590464
 30
0.0
 10
-1.901901295576429
 20
14.23567505897661
 30
0.0
 10
-1.925481331477616
 20
14.31096239015657
 30
0.0
 10
-1.922770298651025
 20
14.34872463928032
 30
0.0
 10
-1.907703506920906
 20
14.38118906353285
 30
0.0
  0
ELLIPSE
  5
19F95
330
19F48
100
AcDbEntity
  8
0
100
AcDbEllipse
 10
0.0000000000000037
 20
14.0860663039442
 30
0.0
 11
-1.974999999999999
 21
0.0000000000000004
 31
0.0
210
0.0
220
0.0
230
1.0
 40
0.5773502691896258
 41
6.021385919380437
 42
6.193558171728797
  0
SPLINE
  5
19F96
330
19F48
100
AcDbEntity
  8
0
100
AcDbSpline
210
0.0
220
0.0
230
1.0
 70
     8
 71
     3
 72
    14
 73
    10
 74
     0
 42
0.000000001
 43
0.0000000001
 40
0.0560019654545527
 40
0.0560019654545527
 40
0.0560019654545527
 40
0.0560019654545527
 40
0.0621425582382483
 40
0.0621425582382483
 40
0.0825727197445755
 40
0.0825727197445755
 40
0.1030028812509027
 40
0.1030028812509027
 40
0.1174535963263889
 40
0.1174535963263889
 40
0.1174535963263889
 40
0.1174535963263889
 10
-0.1198497070333054
 20
13.1519971470184
 30
0.0
 10
-0.1369917586585435
 20
13.15803151024255
 30
0.0
 10
-0.1548715477842554
 20
13.16381628393471
 30
0.0
 10
-0.2348496768877775
 20
13.18742864510759
 30
0.0
 10
-0.3030370704903599
 20
13.20201589605771
 30
0.0
 10
-0.434597208051815
 20
13.22236832016772
 30
0.0
 10
-0.5082892553598275
 20
13.22972989511141
 30
0.0
 10
-0.6328468158408024
 20
13.23424404828709
 30
0.0
 10
-0.6840841108728181
 20
13.23372490223556
 30
0.0
 10
-0.7320687734738194
 20
13.23111929257612
 30
0.0
  0
SPLINE
  5
19F97
330
19F48
100
AcDbEntity
  8
0
100
AcDbSpline
210
0.0
220
0.0
230
1.0
 70
     8
 71
     3
 72
     8
 73
     4
 74
     0
 42
0.000000001
 43
0.0000000001
 40
0.1171568331781044
 40
0.1171568331781044
 40
0.1171568331781044
 40
0.1171568331781044
 40
0.121349748553623
 40
0.121349748553623
 40
0.121349748553623
 40
0.121349748553623
 10
1.560135490984937
 20
13.59103329336374
 30
0.0
 10
1.545734935500767
 20
13.58854003719302
 30
0.0
 10
1.531230557882046
 20
13.5864411805305
 30
0.0
 10
1.516743783445393
 20
13.5847745205046
 30
0.0
  0
SPLINE
  5
19F98
330
19F48
100
AcDbEntity
  8
0
100
AcDbSpline
210
0.0
220
0.0
230
1.0
 70
     8
 71
     3
 72
    16
 73
    12
 74
     0
 42
0.000000001
 43
0.0000000001
 40
0.0285257421174369
 40
0.0285257421174369
 40
0.0285257421174369
 40
0.0285257421174369
 40
0.0417123967319208
 40
0.0417123967319208
 40
0.0621425582382479
 40
0.0621425582382479
 40
0.082572719744575
 40
0.082572719744575
 40
0.1030028812509022
 40
0.1030028812509022
 40
0.119437848346113
 40
0.119437848346113
 40
0.119437848346113
 40
0.119437848346113
 10
1.516743783445393
 20
13.5847745205046
 30
0.0
 10
1.470434932246591
 20
13.57944682582172
 30
0.0
 10
1.424687399530599
 20
13.5718287641768
 30
0.0
 10
1.315247322212119
 20
13.54873379606569
 30
0.0
 10
1.244965884037922
 20
13.52881972647966
 30
0.0
 10
1.115232492112368
 20
13.48088958351578
 30
0.0
 10
1.055781515663704
 20
13.45293071111548
 30
0.0
 10
0.9594728107179689
 20
13.39732685438976
 30
0.0
 10
0.9150608278706119
 20
13.36532041928167
 30
0.0
 10
0.8545083043046599
 20
13.30602612316454
 30
0.0
 10
0.8345275628005534
 20
13.2789970775009
 30
0.0
 10
0.8217737291562078
 20
13.25330533247673
 30
0.0
  0
SPLINE
  5
19F99
330
19F48
100
AcDbEntity
  8
0
100
AcDbSpline
210
0.0
220
0.0
230
1.0
 70
     8
 71
     3
 72
    10
 73
     6
 74
     0
 42
0.000000001
 43
0.0000000001
 40
0.0189754275574595
 40
0.0189754275574595
 40
0.0189754275574595
 40
0.0189754275574595
 40
0.0352344202520848
 40
0.0352344202520848
 40
0.0425305134940945
 40
0.0425305134940945
 40
0.0425305134940945
 40
0.0425305134940945
 10
1.715449534524097
 20
14.01292590933294
 30
0.0
 10
1.764769165138251
 20
14.00461578276173
 30
0.0
 10
1.808064439985615
 20
13.989253483642
 30
0.0
 10
1.855244274786322
 20
13.96100254038804
 30
0.0
 10
1.868341507812574
 20
13.95101388156242
 30
0.0
 10
1.879498403777086
 20
13.94006268576129
 30
0.0
  0
ELLIPSE
  5
19F9A
330
19F48
100
AcDbEntity
  8
0
100
AcDbEllipse
 10
0.0000000000000037
 20
14.0860663039442
 30
0.0
 11
1.974999999999999
 21
-0.0000000000000006
 31
0.0
210
0.0
220
0.0
230
1.0
 40
0.5773502691896258
 41
0.0896271354507894
 42
0.7853981633974492
  0
SPLINE
  5
19F9B
330
19F48
100
AcDbEntity
  8
0
100
AcDbSpline
210
0.0
220
0.0
230
1.0
 70
     8
 71
     3
 72
    12
 73
     8
 74
     0
 42
0.000000001
 43
0.0000000001
 40
0.0701625880555413
 40
0.0701625880555413
 40
0.0701625880555413
 40
0.0701625880555413
 40
0.0876266719572695
 40
0.0876266719572695
 40
0.1050907558589977
 40
0.1050907558589977
 40
0.121349748553623
 40
0.121349748553623
 40
0.121349748553623
 40
0.121349748553623
 10
1.396535892843434
 20
14.89235667761033
 30
0.0
 10
1.437699133357177
 20
14.868591069619
 30
0.0
 10
1.471403593962576
 20
14.83646231693454
 30
0.0
 10
1.510736325671174
 20
14.7636119362769
 30
0.0
 10
1.516364086680471
 20
14.72287556393203
 30
0.0
 10
1.502299402196027
 20
14.64808557518478
 30
0.0
 10
1.483750277977484
 20
14.61012733022177
 30
0.0
 10
1.454501968170724
 20
14.57518977104331
 30
0.0
  0
SPLINE
  5
19F9C
330
19F48
100
AcDbEntity
  8
0
100
AcDbSpline
210
0.0
220
0.0
230
1.0
 70
     8
 71
     3
 72
    18
 73
    14
 74
     0
 42
0.000000001
 43
0.0000000001
 40
0.028525742117437
 40
0.028525742117437
 40
0.028525742117437
 40
0.028525742117437
 40
0.0417123967319211
 40
0.0417123967319211
 40
0.0621425582382483
 40
0.0621425582382483
 40
0.0825727197445755
 40
0.0825727197445755
 40
0.1030028812509027
 40
0.1030028812509027
 40
0.1234330427572299
 40
0.1234330427572299
 40
0.1366196973717139
 40
0.1366196973717139
 40
0.1366196973717139
 40
0.1366196973717139
 10
1.454501968170724
 20
14.57518977104331
 30
0.0
 10
1.430390950301519
 20
14.54638878667109
 30
0.0
 10
1.410665946218864
 20
14.51694654609329
 30
0.0
 10
1.372291886346103
 20
14.44458019891843
 30
0.0
 10
1.356825744624372
 20
14.39608360270042
 30
0.0
 10
1.350082169000148
 20
14.30266113721996
 30
0.0
 10
1.358818586154065
 20
14.25779741172141
 30
0.0
 10
1.394070018769785
 20
14.18184113088568
 30
0.0
 10
1.42335008323044
 20
14.14479072298202
 30
0.0
 10
1.502145097183489
 20
14.08296391550437
 30
0.0
 10
1.551651485518762
 20
14.05811397401762
 30
0.0
 10
1.636992017416158
 20
14.02928163863522
 30
0.0
 10
1.674792604161384
 20
14.01977641151846
 30
0.0
 10
1.715449534524097
 20
14.01292590933294
 30
0.0
  0
LINE
  5
19F9D
330
19F48
100
AcDbEntity
  8
0
100
AcDbLine
 10
-1.454501968170716
 20
13.52253270522993
 30
0.0
 11
-1.454501968170716
 21
13.51881742558173
 31
0.0
  0
LINE
  5
19F9E
330
19F48
100
AcDbEntity
  8
0
100
AcDbLine
 10
1.715449534524097
 20
14.01292590933294
 30
0.0
 11
1.715449534524097
 21
13.7251365005715
 31
0.0
  0
LINE
  5
19F9F
330
19F48
100
AcDbEntity
  8
0
100
AcDbLine
 10
0.9116277604675719
 20
14.88861834099683
 30
0.0
 11
0.9116277604675717
 21
13.44751184233903
 31
0.0
  0
SPLINE
  5
19FA0
330
19F48
100
AcDbEntity
  8
0
100
AcDbSpline
210
0.0
220
0.0
230
1.0
 70
     8
 71
     3
 72
    10
 73
     6
 74
     0
 42
0.000000001
 43
0.0000000001
 40
0.1936658524217636
 40
0.1936658524217636
 40
0.1936658524217636
 40
0.1936658524217636
 40
0.2051185765580948
 40
0.2051185765580948
 40
0.22137756925272
 40
0.22137756925272
 40
0.22137756925272
 40
0.22137756925272
 10
1.183977858714025
 20
13.50621203433001
 30
0.0
 10
1.144811997265844
 20
13.50731916711273
 30
0.0
 10
1.105062481539972
 20
13.50445486354307
 30
0.0
 10
1.014069987187363
 20
13.48885846070853
 30
0.0
 10
0.9596074630750567
 20
13.47163482684171
 30
0.0
 10
0.9116277604675717
 20
13.44751184233903
 30
0.0
  0
LINE
  5
19FA1
330
19F48
100
AcDbEntity
  8
0
100
AcDbLine
 10
-1.516743783445386
 20
14.51294795576864
 30
0.0
 11
-1.516743783445386
 21
13.96277613499353
 31
0.0
  0
SPLINE
  5
19FA2
330
19F48
100
AcDbEntity
  8
0
100
AcDbSpline
210
0.0
220
0.0
230
1.0
 70
     8
 71
     3
 72
    10
 73
     6
 74
     0
 42
0.000000001
 43
0.0000000001
 40
0.2893731803585742
 40
0.2893731803585742
 40
0.2893731803585742
 40
0.2893731803585742
 40
0.3009806978249028
 40
0.3009806978249028
 40
0.3193366785356765
 40
0.3193366785356765
 40
0.3193366785356765
 40
0.3193366785356765
 10
-0.8036272200055742
 20
13.4717346541132
 30
0.0
 10
-0.8036420441056755
 20
13.44313148071136
 30
0.0
 10
-0.8072397062874507
 20
13.41527300007271
 30
0.0
 10
-0.8240632017600725
 20
13.34808235391028
 30
0.0
 10
-0.8434490021783163
 20
13.30565985812617
 30
0.0
 10
-0.8716182393057836
 20
13.26697752490526
 30
0.0
  0
SPLINE
  5
19FA3
330
19F48
100
AcDbEntity
  8
0
100
AcDbSpline
210
0.0
220
0.0
230
1.0
 70
     8
 71
     3
 72
    18
 73
    14
 74
     0
 42
0.000000001
 43
0.0000000001
 40
0.1190032482565566
 40
0.1190032482565566
 40
0.1190032482565566
 40
0.1190032482565566
 40
0.1352622409511818
 40
0.1352622409511818
 40
0.15272632485291
 40
0.15272632485291
 40
0.1701904087546383
 40
0.1701904087546383
 40
0.1876544926563665
 40
0.1876544926563665
 40
0.2051185765580948
 40
0.2051185765580948
 40
0.2189579795830248
 40
0.2189579795830248
 40
0.2189579795830248
 40
0.2189579795830248
 10
-0.0622418152746665
 20
13.59816999001753
 30
0.0
 10
-0.0891693016953907
 20
13.63388115699134
 30
0.0
 10
-0.1270606690215995
 20
13.66539198758513
 30
0.0
 10
-0.2159242089022992
 20
13.71524902453363
 30
0.0
 10
-0.2727170235771092
 20
13.73517853831713
 30
0.0
 10
-0.3922243072194596
 20
13.75508224719111
 30
0.0
 10
-0.4549375818336143
 20
13.7550717548024
 30
0.0
 10
-0.5673976463213374
 20
13.73767412227998
 30
0.0
 10
-0.6230644517050012
 20
13.71937115255966
 30
0.0
 10
-0.7147707773259554
 20
13.66679258461962
 30
0.0
 10
-0.7508093135001458
 20
13.6325020108813
 30
0.0
 10
-0.7908959716548848
 20
13.56725983808893
 30
0.0
 10
-0.8016241915934852
 20
13.53463872518458
 30
0.0
 10
-0.8035984306850757
 20
13.5011043788809
 30
0.0
  0
LINE
  5
19FA4
330
19F48
100
AcDbEntity
  8
0
100
AcDbLine
 10
-0.0622418152746661
 20
15.03927648867533
 30
0.0
 11
-0.0622418152746665
 21
13.59816999001753
 31
0.0
  0
SPLINE
  5
19FA5
330
19F48
100
AcDbEntity
  8
0
100
AcDbSpline
210
0.0
220
0.0
230
1.0
 70
     8
 71
     3
 72
    18
 73
    14
 74
     0
 42
0.000000001
 43
0.0000000001
 40
0.2877940432104187
 40
0.2877940432104187
 40
0.2877940432104187
 40
0.2877940432104187
 40
0.3009806978249028
 40
0.3009806978249028
 40
0.32141085933123
 40
0.32141085933123
 40
0.3418410208375572
 40
0.3418410208375572
 40
0.3622711823438844
 40
0.3622711823438844
 40
0.3827013438502116
 40
0.3827013438502116
 40
0.3958879984646957
 40
0.3958879984646957
 40
0.3958879984646957
 40
0.3958879984646957
 10
0.9116277604675717
 20
13.44751184233903
 30
0.0
 10
0.872075407713811
 20
13.42762591681906
 30
0.0
 10
0.8306389434740196
 20
13.41071879360749
 30
0.0
 10
0.7264237010715397
 20
13.37636587088993
 30
0.0
 10
0.6541990676600931
 20
13.36063880512777
 30
0.0
 10
0.5082892553598346
 20
13.34756400385432
 30
0.0
 10
0.4345972080518222
 20
13.35029037450175
 30
0.0
 10
0.3030370704903671
 20
13.37064279861176
 30
0.0
 10
0.234849676887785
 20
13.38986525385814
 30
0.0
 10
0.1118598605864544
 20
13.44453897244624
 30
0.0
 10
0.0570445641339886
 20
13.47991918375401
 30
0.0
 10
-0.0140214533117319
 20
13.54138821173787
 30
0.0
 10
-0.0400439819450692
 20
13.56873127746544
 30
0.0
 10
-0.0622418152746665
 20
13.59816999001753
 30
0.0
  0
LINE
  5
19FA6
330
19F48
100
AcDbEntity
  8
0
100
AcDbLine
 10
-1.35271125500513
 20
13.69489215906205
 30
0.0
 11
-1.35271125500513
 21
13.45936811345839
 31
0.0
  0
LINE
  5
19FA7
330
19F48
100
AcDbEntity
  8
0
100
AcDbLine
 10
1.352711255005138
 20
14.32892382799351
 30
0.0
 11
1.352711255005137
 21
13.55633558832243
 31
0.0
  0
LINE
  5
19FA8
330
19F48
100
AcDbEntity
  8
0
100
AcDbLine
 10
-0.8036237229066481
 20
14.91284089620985
 30
0.0
 11
-0.8036237229066484
 21
13.47173439755206
 31
0.0
  0
ELLIPSE
  5
19FA9
330
19F48
100
AcDbEntity
  8
0
100
AcDbEllipse
 10
0.0000000000000038
 20
14.29019044917613
 30
0.0
 11
1.974999999999999
 21
-0.0000000000000003
 31
0.0
210
0.0
220
0.0
230
1.0
 40
0.5773502691896257
 41
0.0
 42
6.283185307179586
  0
ELLIPSE
  5
19FAA
330
19F48
100
AcDbEntity
  8
0
100
AcDbEllipse
 10
0.0000000000000038
 20
14.29019044917613
 30
0.0
 11
-3.5
 21
-0.0000000000002083
 31
0.0
210
0.0
220
0.0
230
1.0
 40
0.5773502691896257
 41
0.0
 42
6.283185307179586
  0
ELLIPSE
  5
19FAB
330
19F48
100
AcDbEntity
  8
0
100
AcDbEllipse
 10
0.0000000000000031
 20
11.19085271484198
 30
0.0
 11
1.500000000000001
 21
0.000000000000089
 31
0.0
210
0.0
220
0.0
230
1.0
 40
0.5773502691896258
 41
4.17151940067648
 42
5.253258560092674
  0
ELLIPSE
  5
19FAC
330
19F48
100
AcDbEntity
  8
0
100
AcDbEllipse
 10
0.0000000000000037
 20
13.88194215871227
 30
0.0
 11
3.5
 21
0.0000000000002082
 31
0.0
210
0.0
220
0.0
230
1.0
 40
0.5773502691896257
 41
4.024021462679494
 42
5.400756498089509
  0
ELLIPSE
  5
19FAD
330
19F48
100
AcDbEntity
  8
0
100
AcDbEllipse
 10
0.0000000000000037
 20
13.88194215871227
 30
0.0
 11
3.5
 21
0.0000000000000001
 31
0.0
210
0.0
220
0.0
230
1.0
 40
0.5773502691896258
 41
5.594817789474577
 42
6.283185307179584
  0
ELLIPSE
  5
19FAE
330
19F48
100
AcDbEntity
  8
0
100
AcDbEllipse
 10
0.0000000000000037
 20
13.88194215871227
 30
0.0
 11
-3.5
 21
0.0000000000000008
 31
0.0
210
0.0
220
0.0
230
1.0
 40
0.5773502691896257
 41
0.0000000000000018
 42
0.6883675177050095
  0
ELLIPSE
  5
19FAF
330
19F48
100
AcDbEntity
  8
0
100
AcDbEllipse
 10
0.000000000000001
 20
2.206041051445786
 30
0.0
 11
-1.5
 21
0.0000000000000002
 31
0.0
210
0.0
220
0.0
230
1.0
 40
0.5773502691896255
 41
0.0000000000000007
 42
3.141592653589794
  0
ELLIPSE
  5
19FB0
330
19F48
100
AcDbEntity
  8
0
100
AcDbEllipse
 10
-0.0000000000000015
 20
-9.070018299524026
 30
0.0
 11
-1.299999999999998
 21
0.0000000000000002
 31
0.0
210
0.0
220
0.0
230
1.0
 40
0.5773502691896258
 41
0.0000000000000023
 42
0.1976903512542384
  0
ELLIPSE
  5
19FB1
330
19F48
100
AcDbEntity
  8
0
100
AcDbEllipse
 10
-0.0000000000000015
 20
-9.070018299524026
 30
0.0
 11
1.299999999999998
 21
-0.0000000000000005
 31
0.0
210
0.0
220
0.0
230
1.0
 40
0.5773502691896258
 41
4.911299601962268
 42
5.661992135798239
  0
ELLIPSE
  5
19FB2
330
19F48
100
AcDbEntity
  8
0
100
AcDbEllipse
 10
0.000000000000001
 20
2.042741735260242
 30
0.0
 11
1.3
 21
0.0000000000000778
 31
0.0
210
0.0
220
0.0
230
1.0
 40
0.5773502691896258
 41
3.926990816987
 42
5.497787143781894
  0
LINE
  5
19FB3
330
19F48
100
AcDbEntity
  8
0
100
AcDbLine
 10
2.621055839634436
 20
12.35812388203111
 30
0.0
 11
3.161427849859237
 21
13.01488315454273
 31
0.0
  0
LINE
  5
19FB4
330
19F48
100
AcDbEntity
  8
0
100
AcDbLine
 10
-2.621055839634429
 20
12.35812388203111
 30
0.0
 11
-3.16142784985923
 21
13.01488315454273
 31
0.0
  0
LINE
  5
19FB5
330
19F48
100
AcDbEntity
  8
0
100
AcDbLine
 10
-3.499999999999996
 20
13.88194215871227
 30
0.0
 11
-3.499999999999996
 21
14.29019044917613
 31
0.0
  0
LINE
  5
19FB6
330
19F48
100
AcDbEntity
  8
0
100
AcDbLine
 10
3.500000000000004
 20
13.88194215871227
 30
0.0
 11
3.500000000000004
 21
14.29019044917613
 31
0.0
  0
LINE
  5
19FB7
330
19F48
100
AcDbEntity
  8
0
100
AcDbLine
 10
-1.5
 20
2.206041051445786
 30
0.0
 11
-1.499999999999998
 21
10.64932452723289
 31
0.0
  0
LINE
  5
19FB8
330
19F48
100
AcDbEntity
  8
0
100
AcDbLine
 10
1.500000000000002
 20
2.206041051445786
 30
0.0
 11
1.500000000000004
 21
10.64932452723289
 31
0.0
  0
LINE
  5
19FB9
330
19F48
100
AcDbEntity
  8
0
100
AcDbLine
 10
0.0
 20
-14.28718988329428
 30
0.0
 11
-0.5542768894437639
 21
-12.08590013917753
 31
0.0
  0
LINE
  5
19FBA
330
19F48
100
AcDbEntity
  8
0
100
AcDbLine
 10
-1.281422474465296
 20
-9.198068895854362
 30
0.0
 11
-1.286476992320902
 21
-9.177995068983886
 31
0.0
  0
LINE
  5
19FBB
330
19F48
100
AcDbEntity
  8
0
100
AcDbLine
 10
-0.6735083032905188
 20
-11.61237707971749
 30
0.0
 11
-1.112965722902014
 21
-9.867088525945044
 31
0.0
  0
LINE
  5
19FBC
330
19F48
100
AcDbEntity
  8
0
100
AcDbLine
 10
-1.3
 20
-9.07001829952402
 30
0.0
 11
-1.3
 21
-7.526768082387924
 31
0.0
  0
LINE
  5
19FBD
330
19F48
100
AcDbEntity
  8
0
100
AcDbLine
 10
-1.3
 20
-6.549591157955916
 30
0.0
 11
-1.299999999999999
 21
-5.077278339604744
 31
0.0
  0
LINE
  5
19FBE
330
19F48
100
AcDbEntity
  8
0
100
AcDbLine
 10
-1.299999999999999
 20
-4.100101415172736
 30
0.0
 11
-1.299999999999998
 21
-2.627788596821563
 31
0.0
  0
LINE
  5
19FBF
330
19F48
100
AcDbEntity
  8
0
100
AcDbLine
 10
-1.299999999999998
 20
-1.650611672389559
 30
0.0
 11
-1.299999999999998
 21
-0.1782988540383878
 31
0.0
  0
LINE
  5
19FC0
330
19F48
100
AcDbEntity
  8
0
100
AcDbLine
 10
-1.299999999999998
 20
0.7988780703936205
 30
0.0
 11
-1.299999999999998
 21
1.773991671551926
 31
0.0
  0
LINE
  5
19FC1
330
19F48
100
AcDbEntity
  8
0
100
AcDbLine
 10
1.299999999999998
 20
-7.186843781949074
 30
0.0
 11
1.299999999999998
 21
-7.006297509676073
 31
0.0
  0
LINE
  5
19FC2
330
19F48
100
AcDbEntity
  8
0
100
AcDbLine
 10
1.299999999999998
 20
-5.324846286564324
 30
0.0
 11
1.299999999999998
 21
-4.556807766892891
 31
0.0
  0
LINE
  5
19FC3
330
19F48
100
AcDbEntity
  8
0
100
AcDbLine
 10
1.299999999999999
 20
-2.875356543781149
 30
0.0
 11
1.299999999999999
 21
-2.107318024109712
 31
0.0
  0
LINE
  5
19FC4
330
19F48
100
AcDbEntity
  8
0
100
AcDbLine
 10
1.299999999999999
 20
-0.4258668009979694
 30
0.0
 11
1.3
 21
0.5176517095074096
 31
0.0
  0
LINE
  5
19FC5
330
19F48
100
AcDbEntity
  8
0
100
AcDbLine
 10
-0.9192388155425099
 20
1.512018957657221
 30
0.0
 11
-1.06066017177982
 21
1.593668615749992
 31
0.0
  0
LINE
  5
19FC6
330
19F48
100
AcDbEntity
  8
0
100
AcDbLine
 10
0.9192388155425113
 20
1.512018957657221
 30
0.0
 11
1.060660171779821
 21
1.59366861574999
 31
0.0
  0
SPLINE
  5
19FC7
330
19F48
100
AcDbEntity
  8
0
100
AcDbSpline
210
0.0
220
0.0
230
1.0
 70
     8
 71
     3
 72
    14
 73
    10
 74
     0
 42
0.000000001
 43
0.0000000001
 40
1.351427378112068
 40
1.351427378112068
 40
1.351427378112068
 40
1.351427378112068
 40
2.485818540050955
 40
2.485818540050955
 40
2.485818540050955
 40
3.654166695700573
 40
3.654166695700573
 40
3.654166695700573
 40
4.634019718848055
 40
4.634019718848055
 40
4.634019718848055
 40
4.634019718848055
 10
1.676446247227366
 20
-8.98710801012756
 30
0.0
 10
1.246799055920963
 20
-9.490655873184557
 30
0.0
 10
0.4604284949153501
 20
-9.820982302967147
 30
0.0
 10
-0.2443969148656927
 20
-9.896815022059431
 30
0.0
 10
-0.9703206484085242
 20
-9.974917726366413
 30
0.0
 10
-1.569552272045781
 20
-9.790055862794385
 30
0.0
 10
-1.726063469454543
 20
-9.548678213803295
 30
0.0
 10
-1.857323975319884
 20
-9.346243162281648
 30
0.0
 10
-1.675894327586744
 20
-9.12091316915728
 30
0.0
 10
-1.298001591773414
 20
-9.011336958780633
 30
0.0
  0
SPLINE
  5
19FC8
330
19F48
100
AcDbEntity
  8
0
100
AcDbSpline
210
0.0
220
0.0
230
1.0
 70
     8
 71
     3
 72
     8
 73
     4
 74
     0
 42
0.000000001
 43
0.0000000001
 40
6.212038680887517
 40
6.212038680887517
 40
6.212038680887517
 40
6.212038680887517
 40
6.28318530717958
 40
6.28318530717958
 40
6.28318530717958
 40
6.28318530717958
 10
1.033011957930965
 20
-9.579083325693126
 30
0.0
 10
1.059967364661712
 20
-9.603341754175893
 30
0.0
 10
1.085944966165605
 20
-9.628126408840515
 30
0.0
 10
1.110878229196425
 20
-9.653397326252154
 30
0.0
  0
SPLINE
  5
19FC9
330
19F48
100
AcDbEntity
  8
0
100
AcDbSpline
210
0.0
220
0.0
230
1.0
 70
     8
 71
     3
 72
    20
 73
    16
 74
     0
 42
0.000000001
 43
0.0000000001
 40
0.0
 40
0.0
 40
0.0
 40
0.0
 40
0.0591303055810818
 40
0.0591303055810818
 40
0.1182606111621634
 40
0.1182606111621634
 40
0.177390916743245
 40
0.177390916743245
 40
0.2365212223243266
 40
0.2365212223243266
 40
0.2956515279054082
 40
0.2956515279054082
 40
0.3547818334864899
 40
0.3547818334864899
 40
0.3704671741147824
 40
0.3704671741147824
 40
0.3704671741147824
 40
0.3704671741147824
 10
-1.274679665653766
 20
-9.217431268162927
 30
0.0
 10
-1.238794874230805
 20
-9.260494230966799
 30
0.0
 10
-1.165542210880599
 20
-9.298697855392346
 30
0.0
 10
-0.9538817969809009
 20
-9.349937344730431
 30
0.0
 10
-0.8178323613249343
 20
-9.362378684211115
 30
0.0
 10
-0.5030888283692969
 20
-9.348824898472734
 30
0.0
 10
-0.3279015954271811
 20
-9.322957172827992
 30
0.0
 10
0.0351912067313779
 20
-9.225970813340405
 30
0.0
 10
0.2190512052750335
 20
-9.155909182664988
 30
0.0
 10
0.5673514966309547
 20
-8.971359861936436
 30
0.0
 10
0.7279110365457343
 20
-8.858904799315144
 30
0.0
 10
1.000849452347291
 20
-8.597889314756578
 30
0.0
 10
1.110187255417753
 20
-8.452213504283911
 30
0.0
 10
1.205153538617977
 20
-8.25414387041722
 30
0.0
 10
1.222533784446309
 20
-8.212097405915766
 30
0.0
 10
1.237336346262218
 20
-8.169632245472842
 30
0.0
  0
SPLINE
  5
19FCA
330
19F48
100
AcDbEntity
  8
0
100
AcDbSpline
210
0.0
220
0.0
230
1.0
 70
     8
 71
     3
 72
     8
 73
     4
 74
     0
 42
0.000000001
 43
0.0000000001
 40
0.5413570538388657
 40
0.5413570538388657
 40
0.5413570538388657
 40
0.5413570538388657
 40
0.5486885212302037
 40
0.5486885212302037
 40
0.5486885212302037
 40
0.5486885212302037
 10
-1.281422537822981
 20
-9.198067644941305
 30
0.0
 10
-1.279795031058431
 20
-9.204531758796949
 30
0.0
 10
-1.277547576188108
 20
-9.210992062600542
 30
0.0
 10
-1.274679665653766
 20
-9.217431268162927
 30
0.0
  0
SPLINE
  5
19FCB
330
19F48
100
AcDbEntity
  8
0
100
AcDbSpline
210
0.0
220
0.0
230
1.0
 70
     8
 71
     3
 72
     8
 73
     4
 74
     0
 42
0.000000001
 43
0.0000000001
 40
7.958032867806182
 40
7.958032867806182
 40
7.958032867806182
 40
7.958032867806182
 40
8.377580409572777
 40
8.377580409572777
 40
8.377580409572777
 40
8.377580409572777
 10
0.9006795623928297
 20
-11.58897865800172
 30
0.0
 10
0.7379295597835729
 20
-11.71094135925793
 30
0.0
 10
0.5524206736971078
 20
-11.81194859100449
 30
0.0
 10
0.3609728716241962
 20
-11.88904819267229
 30
0.0
  0
SPLINE
  5
19FCC
330
19F48
100
AcDbEntity
  8
0
100
AcDbSpline
210
0.0
220
0.0
230
1.0
 70
     8
 71
     3
 72
     8
 73
     4
 74
     0
 42
0.000000001
 43
0.0000000001
 40
0.0
 40
0.0
 40
0.0
 40
0.0
 40
0.0388480225948279
 40
0.0388480225948279
 40
0.0388480225948279
 40
0.0388480225948279
 10
0.2212354448563764
 20
-11.33344271755154
 30
0.0
 10
0.3335486265965613
 20
-11.27286530905703
 30
0.0
 10
0.4417184324655216
 20
-11.20075422476271
 30
0.0
 10
0.5397185849685067
 20
-11.11757064054105
 30
0.0
  0
SPLINE
  5
19FCD
330
19F48
100
AcDbEntity
  8
0
100
AcDbSpline
210
0.0
220
0.0
230
1.0
 70
     8
 71
     3
 72
    10
 73
     6
 74
     0
 42
0.000000001
 43
0.0000000001
 40
-0.111699001994946
 40
-0.111699001994946
 40
-0.111699001994946
 40
-0.111699001994946
 40
-0.0587539721768738
 40
-0.0587539721768738
 40
-0.0144942073227769
 40
-0.0144942073227769
 40
-0.0144942073227769
 40
-0.0144942073227769
 10
1.676446247227363
 20
-8.98710801012756
 30
0.0
 10
1.59338692018135
 20
-8.841588594267776
 30
0.0
 10
1.510911276898927
 20
-8.693282582523647
 30
0.0
 10
1.364910540586079
 20
-8.420702012332119
 30
0.0
 10
1.300552537655032
 20
-8.29662768750358
 30
0.0
 10
1.237336346262263
 20
-8.169632245472833
 30
0.0
  0
LINE
  5
19FCE
330
19F48
100
AcDbEntity
  8
0
100
AcDbLine
 10
1.011200947979759
 20
-9.644494510583573
 30
0.0
 11
1.110878229196431
 21
-9.653397326252154
 31
0.0
  0
SPLINE
  5
19FCF
330
19F48
100
AcDbEntity
  8
0
100
AcDbSpline
210
0.0
220
0.0
230
1.0
 70
     8
 71
     3
 72
     8
 73
     4
 74
     0
 42
0.000000001
 43
0.0000000001
 40
1.075574923320972
 40
1.075574923320972
 40
1.075574923320972
 40
1.075574923320972
 40
1.077908432330144
 40
1.077908432330144
 40
1.077908432330144
 40
1.077908432330144
 10
1.05713998384764
 20
-9.506845898831652
 30
0.0
 10
1.058226223208843
 20
-9.499409102105547
 30
0.0
 10
1.059312492361805
 20
-9.49197304267578
 30
0.0
 10
1.060398711379178
 20
-9.484537780329009
 30
0.0
  0
SPLINE
  5
19FD0
330
19F48
100
AcDbEntity
  8
0
100
AcDbSpline
210
0.0
220
0.0
230
1.0
 70
     8
 71
     3
 72
     8
 73
     4
 74
     0
 42
0.000000001
 43
0.0000000001
 40
1.8249675152309
 40
1.8249675152309
 40
1.8249675152309
 40
1.8249675152309
 40
2.019685653931935
 40
2.019685653931935
 40
2.019685653931935
 40
2.019685653931935
 10
1.05713998384764
 20
-9.506845898831652
 30
0.0
 10
0.8744747165707041
 20
-10.05375050223131
 30
0.0
 10
0.6957069962308449
 20
-10.59327578355463
 30
0.0
 10
0.5397185849684552
 20
-11.11757064054107
 30
0.0
  0
SPLINE
  5
19FD1
330
19F48
100
AcDbEntity
  8
0
100
AcDbSpline
210
0.0
220
0.0
230
1.0
 70
     8
 71
     3
 72
    10
 73
     6
 74
     0
 42
0.000000001
 43
0.0000000001
 40
-0.090092103804163
 40
-0.090092103804163
 40
-0.090092103804163
 40
-0.090092103804163
 40
-0.0424526227277084
 40
-0.0424526227277084
 40
-0.0274778096442232
 40
-0.0274778096442232
 40
-0.0274778096442232
 40
-0.0274778096442232
 10
0.9006795623928287
 20
-11.58897865800172
 30
0.0
 10
0.8117101347824455
 20
-11.47236613092453
 30
0.0
 10
0.7184259576907205
 20
-11.34990816730249
 30
0.0
 10
0.6033979266549338
 20
-11.20005384938424
 30
0.0
 10
0.5722483186235518
 20
-11.1595664150252
 30
0.0
 10
0.5397185849684552
 20
-11.11757064054107
 30
0.0
  0
SPLINE
  5
19FD2
330
19F48
100
AcDbEntity
  8
0
100
AcDbSpline
210
0.0
220
0.0
230
1.0
 70
     8
 71
     3
 72
     8
 73
     4
 74
     0
 42
0.000000001
 43
0.0000000001
 40
2.11846850954553
 40
2.11846850954553
 40
2.11846850954553
 40
2.11846850954553
 40
2.443592656319521
 40
2.443592656319521
 40
2.443592656319521
 40
2.443592656319521
 10
0.3217667326619328
 20
-11.90305742670329
 30
0.0
 10
0.1060642943723407
 20
-12.74991088192729
 30
0.0
 10
-0.0259899665412317
 20
-13.54391726955797
 30
0.0
 10
-0.0000000000000027
 20
-14.28718988329428
 30
0.0
  0
SPLINE
  5
19FD3
330
19F48
100
AcDbEntity
  8
0
100
AcDbSpline
210
0.0
220
0.0
230
1.0
 70
     8
 71
     3
 72
     8
 73
     4
 74
     0
 42
0.000000001
 43
0.0000000001
 40
1.21461916850271
 40
1.21461916850271
 40
1.21461916850271
 40
1.21461916850271
 40
1.308589060326325
 40
1.308589060326325
 40
1.308589060326325
 40
1.308589060326325
 10
1.237336346262263
 20
-8.169632245472833
 30
0.0
 10
1.272690218657065
 20
-7.845762280526398
 30
0.0
 10
1.299943504493332
 20
-7.500532910120529
 30
0.0
 10
1.299997073612266
 20
-7.186842895405356
 30
0.0
  0
LINE
  5
19FD4
330
19F48
100
AcDbEntity
  8
0
100
AcDbLine
 10
1.484924240491748
 20
-6.987952018158321
 30
0.0
 11
1.299913187596433
 21
-7.218108901280695
 31
0.0
  0
LINE
  5
19FD5
330
19F48
100
AcDbEntity
  8
0
100
AcDbLine
 10
1.343794507731721
 20
-6.975346818851302
 30
0.0
 11
1.484924240491748
 21
-6.987952018158321
 31
0.0
  0
LINE
  5
19FD6
330
19F48
100
AcDbEntity
  8
0
100
AcDbLine
 10
0.2379400083012976
 20
-12.79937843654526
 30
0.0
 11
0.0
 21
-14.28718988329428
 31
0.0
  0
LINE
  5
19FD7
330
19F48
100
AcDbEntity
  8
0
100
AcDbLine
 10
0.2379400083012976
 20
-12.79937843654526
 30
0.0
 11
0.5266903843366039
 21
-12.44016807852246
 31
0.0
  0
LINE
  5
19FD8
330
19F48
100
AcDbEntity
  8
0
100
AcDbLine
 10
0.5266903843366039
 20
-12.44016807852246
 30
0.0
 11
0.2986445638781918
 21
-12.41979984737943
 31
0.0
  0
LINE
  5
19FD9
330
19F48
100
AcDbEntity
  8
0
100
AcDbLine
 10
0.3851017393020846
 20
-11.87919309457765
 30
0.0
 11
0.2986445638781918
 21
-12.41979984737943
 31
0.0
  0
LINE
  5
19FDA
330
19F48
100
AcDbEntity
  8
0
100
AcDbLine
 10
1.110878229196431
 20
-9.653397326252154
 30
0.0
 11
0.9358291742749557
 21
-9.87116131518011
 31
0.0
  0
LINE
  5
19FDB
330
19F48
100
AcDbEntity
  8
0
100
AcDbLine
 10
0.7723224648556303
 20
10.44844267309072
 30
0.0
 11
1.329471158934247
 21
10.42328218335145
 31
0.0
  0
LINE
  5
19FDC
330
19F48
100
AcDbEntity
  8
0
100
AcDbLine
 10
-1.32947115893424
 20
10.42328218335145
 30
0.0
 11
-0.7723224648556249
 21
10.44844267309072
 31
0.0
  0
SPLINE
  5
19FDD
330
19F48
100
AcDbEntity
  8
0
100
AcDbSpline
210
0.0
220
0.0
230
1.0
 70
    12
 71
     2
 72
     6
 73
     3
 74
     0
 42
0.000000001
 43
0.0000000001
 40
0.0
 40
0.0
 40
0.0
 40
0.3870045666688413
 40
0.3870045666688413
 40
0.3870045666688413
 10
-2.223470511960301
 20
12.32136759759245
 30
0.0
 41
1.0
 10
-1.172503088998468
 20
10.9419152368725
 30
0.0
 41
1.126874713456363
 10
-0.7723224648556239
 20
10.44844267309072
 30
0.0
 41
1.0
  0
ELLIPSE
  5
19FDE
330
19F48
100
AcDbEntity
  8
0
100
AcDbEllipse
 10
0.0000000000000025
 20
8.661018539207011
 30
0.0
 11
-0.669571260518908
 21
-5.216518751334075
 31
0.0
210
0.0
220
0.0
230
0.9999999999999998
 40
0.658553466460795
 41
4.022452796694627
 42
4.119483442387068
  0
LINE
  5
19FDF
330
19F48
100
AcDbEntity
  8
0
100
AcDbLine
 10
-2.474873734152912
 20
11.94155604935649
 30
0.0
 11
-1.32947115893424
 21
10.42328218335145
 31
0.0
  0
SPLINE
  5
19FE0
330
19F48
100
AcDbEntity
  8
0
100
AcDbSpline
210
0.0
220
0.0
230
1.0
 70
    12
 71
     2
 72
     6
 73
     3
 74
     0
 42
0.000000001
 43
0.0000000001
 40
0.0
 40
0.0
 40
0.0
 40
0.3870045666688413
 40
0.3870045666688413
 40
0.3870045666688413
 10
0.7723224648556302
 20
10.44844267309072
 30
0.0
 41
1.0
 10
1.172503088998489
 20
10.94191523687252
 30
0.0
 41
1.126874713456468
 10
2.22347051196031
 20
12.32136759759245
 30
0.0
 41
1.0
  0
LINE
  5
19FE1
330
19F48
100
AcDbEntity
  8
0
100
AcDbLine
 10
2.47487373415292
 20
11.94155604935649
 30
0.0
 11
1.329471158934247
 21
10.42328218335145
 31
0.0
  0
ELLIPSE
  5
19FE2
330
19F48
100
AcDbEntity
  8
0
100
AcDbEllipse
 10
0.0000000000000025
 20
8.66101853920701
 30
0.0
 11
0.6695712605189004
 21
-5.216518751334071
 31
0.0
210
0.0
220
0.0
230
0.9999999999999998
 40
0.6585534664607958
 41
2.163701864792519
 42
2.260732510484959
  0
ELLIPSE
  5
19FE3
330
19F48
100
AcDbEntity
  8
0
100
AcDbEllipse
 10
0.0000000000000025
 20
8.66101853920701
 30
0.0
 11
3.356761417399817
 21
7.661756525410451
 31
0.0
210
0.0
220
0.0
230
0.9999999999999998
 40
0.1293484353559204
 41
5.210706864938636
 42
5.307737510631074
  0
ELLIPSE
  5
19FE4
330
19F48
100
AcDbEntity
  8
0
100
AcDbEllipse
 10
0.0000000000000025
 20
8.66101853920701
 30
0.0
 11
3.356761417399816
 21
-7.661756525410456
 31
0.0
210
0.0
220
0.0
230
1.0
 40
0.1293484353559201
 41
4.117040450138292
 42
4.214071095830732
  0
SPLINE
  5
19FE5
330
19F48
100
AcDbEntity
  8
0
100
AcDbSpline
210
0.0
220
0.0
230
1.0
 70
     8
 71
     3
 72
     8
 73
     4
 74
     0
 42
0.000000001
 43
0.0000000001
 40
0.0
 40
0.0
 40
0.0
 40
0.0
 40
0.0499734390295694
 40
0.0499734390295694
 40
0.0499734390295694
 40
0.0499734390295694
 10
1.484924240491748
 20
-6.987952018158321
 30
0.0
 10
1.460188650159833
 20
-6.967176896661957
 30
0.0
 10
1.434805478608076
 20
-6.946807041595137
 30
0.0
 10
1.408815978235464
 20
-6.926847928320625
 30
0.0
  0
SPLINE
  5
19FE6
330
19F48
100
AcDbEntity
  8
0
100
AcDbSpline
210
0.0
220
0.0
230
1.0
 70
     8
 71
     3
 72
    20
 73
    16
 74
     0
 42
0.000000001
 43
0.0000000001
 40
1.45292760803328
 40
1.45292760803328
 40
1.45292760803328
 40
1.45292760803328
 40
2.236354128692176
 40
2.236354128692176
 40
2.236354128692176
 40
3.352543889879197
 40
3.352543889879197
 40
3.352543889879197
 40
4.467506880394788
 40
4.467506880394788
 40
4.467506880394788
 40
5.609897104051547
 40
5.609897104051547
 40
5.609897104051547
 40
6.333158746209325
 40
6.333158746209325
 40
6.333158746209325
 40
6.333158746209325
 10
-1.295604887298177
 20
-6.328904080853066
 30
0.0
 10
-1.722139331836866
 20
-6.424981251608676
 30
0.0
 10
-2.019375155311619
 20
-6.615941840330781
 30
0.0
 10
-2.084938241148793
 20
-6.828483171476347
 30
0.0
 10
-2.178349484186276
 20
-7.131302199678533
 30
0.0
 10
-1.797001611488343
 20
-7.45605298951784
 30
0.0
 10
-1.14107820333568
 20
-7.556120669319081
 30
0.0
 10
-0.4858757009176938
 20
-7.656078367736323
 30
0.0
 10
0.4114027303422472
 20
-7.519979204076459
 30
0.0
 10
1.080614965994624
 20
-7.14321769594004
 30
0.0
 10
1.766289308608663
 20
-6.757188144101569
 30
0.0
 10
2.176280385843313
 20
-6.129868599425041
 30
0.0
 10
2.086816741303402
 20
-5.522622467003643
 30
0.0
 10
2.030176180903442
 20
-5.138167290625121
 30
0.0
 10
1.775369145953879
 20
-4.771497384705478
 30
0.0
 10
1.403079618148213
 20
-4.480121885488356
 30
0.0
  0
SPLINE
  5
19FE7
330
19F48
100
AcDbEntity
  8
0
100
AcDbSpline
210
0.0
220
0.0
230
1.0
 70
     8
 71
     3
 72
    23
 73
    19
 74
     0
 42
0.000000001
 43
0.0000000001
 40
7.736112915212866
 40
7.736112915212866
 40
7.736112915212866
 40
7.736112915212866
 40
7.88040157388232
 40
7.88040157388232
 40
7.88040157388232
 40
9.009527185649638
 40
9.009527185649638
 40
9.009527185649638
 40
10.13501323073768
 40
10.13501323073768
 40
10.13501323073768
 40
11.2571797634821
 40
11.2571797634821
 40
11.2571797634821
 40
12.37633735772029
 40
12.37633735772029
 40
12.37633735772029
 40
12.61634405338872
 40
12.61634405338872
 40
12.61634405338872
 40
12.61634405338872
 10
-1.299436127200222
 20
-3.878121598700794
 30
0.0
 10
-1.379063921606207
 20
-3.894925732597458
 30
0.0
 10
-1.454125422215326
 20
-3.915178441633677
 30
0.0
 10
-1.523633067588032
 20
-3.938737006979906
 30
0.0
 10
-2.06756259973342
 20
-4.123093696925026
 30
0.0
 10
-2.243700558415705
 20
-4.492829699008664
 30
0.0
 10
-1.957775478968195
 20
-4.77152567617362
 30
0.0
 10
-1.672772036034003
 20
-5.049323318749787
 30
0.0
 10
-0.9433093406668303
 20
-5.215267021012104
 30
0.0
 10
-0.1576934977464203
 20
-5.103167103804173
 30
0.0
 10
0.6256052471528275
 20
-4.991397814470759
 30
0.0
 10
1.425559513352896
 20
-4.601640531072983
 30
0.0
 10
1.818449706280873
 20
-4.063101280608474
 30
0.0
 10
2.21028641704223
 20
-3.526006050653007
 30
0.0
 10
2.178027267035022
 20
-2.860345755049158
 30
0.0
 10
1.738682211576487
 20
-2.340431005997534
 30
0.0
 10
1.644463349495098
 20
-2.228933731983948
 30
0.0
 10
1.532520749011586
 20
-2.124982123049103
 30
0.0
 10
1.407141839140814
 20
-2.029673316775464
 30
0.0
  0
SPLINE
  5
19FE8
330
19F48
100
AcDbEntity
  8
0
100
AcDbSpline
210
0.0
220
0.0
230
1.0
 70
     8
 71
     3
 72
    20
 73
    16
 74
     0
 42
0.000000001
 43
0.0000000001
 40
14.01929822239245
 40
14.01929822239245
 40
14.01929822239245
 40
14.01929822239245
 40
14.6494084448491
 40
14.6494084448491
 40
14.6494084448491
 40
15.78321736658988
 40
15.78321736658988
 40
15.78321736658988
 40
16.90929037871616
 40
16.90929037871616
 40
16.90929037871616
 40
18.02892188459276
 40
18.02892188459276
 40
18.02892188459276
 40
18.96742464030037
 40
18.96742464030037
 40
18.96742464030037
 40
18.96742464030037
 10
-1.293869210620713
 20
-1.431809217116923
 30
0.0
 10
-1.63916244661033
 20
-1.507963898717936
 30
0.0
 10
-1.903150200202039
 20
-1.643811394115877
 30
0.0
 10
-2.022140642849992
 20
-1.807143324277278
 30
0.0
 10
-2.236249890197455
 20
-2.101039841144021
 30
0.0
 10
-1.97089202284844
 20
-2.460164731740939
 30
0.0
 10
-1.36908033669938
 20
-2.611562426149616
 30
0.0
 10
-0.7713747752418171
 20
-2.761927143257327
 30
0.0
 10
0.1274377780088008
 20
-2.692488512374839
 30
0.0
 10
0.8484836875143448
 20
-2.362278604801222
 30
0.0
 10
1.565404978382931
 20
-2.03395760599323
 30
0.0
 10
2.071086367966597
 20
-1.457147784878458
 30
0.0
 10
2.098696489750659
 20
-0.8594394531821603
 30
0.0
 10
2.121839975123981
 20
-0.3584255807945791
 30
0.0
 10
1.808358878396424
 20
0.1416967065183283
 30
0.0
 10
1.29807414068268
 20
0.5005787169091347
 30
0.0
  0
SPLINE
  5
19FE9
330
19F48
100
AcDbEntity
  8
0
100
AcDbSpline
210
0.0
220
0.0
230
1.0
 70
     8
 71
     3
 72
    14
 73
    10
 74
     0
 42
0.000000001
 43
0.0000000001
 40
20.30248352957205
 40
20.30248352957205
 40
20.30248352957205
 40
20.30248352957205
 40
21.38635081256739
 40
21.38635081256739
 40
21.38635081256739
 40
22.50398883040443
 40
22.50398883040443
 40
22.50398883040443
 40
22.74575045890293
 40
22.74575045890293
 40
22.74575045890293
 40
22.74575045890293
 10
-1.299911667034689
 20
1.021781025868024
 30
0.0
 10
-1.893795825799661
 20
0.8908702693583837
 30
0.0
 10
-2.202124806854905
 20
0.5644507665535548
 30
0.0
 10
-2.065845654516882
 20
0.2743832618956232
 30
0.0
 10
-1.925320366890652
 20
-0.0247220584983099
 30
0.0
 10
-1.318777832230481
 20
-0.2634523962085411
 30
0.0
 10
-0.5653111774934399
 20
-0.2398084509596732
 30
0.0
 10
-0.4023251994206161
 20
-0.2346939160062567
 30
0.0
 10
-0.2338148600785652
 20
-0.2181479225605898
 30
0.0
 10
-0.0646619650593096
 20
-0.1897396581207844
 30
0.0
  0
SPLINE
  5
19FEA
330
19F48
100
AcDbEntity
  8
0
100
AcDbSpline
210
0.0
220
0.0
230
1.0
 70
     8
 71
     3
 72
    17
 73
    13
 74
     0
 42
0.000000001
 43
0.0000000001
 40
2.356194490192344
 40
2.356194490192344
 40
2.356194490192344
 40
2.356194490192344
 40
2.521021672376644
 40
2.521021672376644
 40
2.521021672376644
 40
3.818453268099742
 40
3.818453268099742
 40
3.818453268099742
 40
5.109170799622498
 40
5.109170799622498
 40
5.109170799622498
 40
5.497787143782137
 40
5.497787143782137
 40
5.497787143782137
 40
5.497787143782137
 10
-1.298404003744888
 20
-6.54994999807795
 30
0.0
 10
-1.299302043969452
 20
-6.569554467155342
 30
0.0
 10
-1.294100309370282
 20
-6.589226858025596
 30
0.0
 10
-1.282380744248614
 20
-6.60848606085894
 30
0.0
 10
-1.190130583349877
 20
-6.760084225271385
 30
0.0
 10
-0.6997339609271127
 20
-6.85910927610601
 30
0.0
 10
-0.1408219432869852
 20
-6.725670679419768
 30
0.0
 10
0.4151977668271437
 20
-6.592922612629594
 30
0.0
 10
0.9911369400944805
 20
-6.22730711185544
 30
0.0
 10
1.203064491511756
 20
-5.760739395320118
 30
0.0
 10
1.266872806070962
 20
-5.620262617191167
 30
0.0
 10
1.296080267601848
 20
-5.472939362432692
 30
0.0
 10
1.293748230186302
 20
-5.325587494103438
 30
0.0
  0
SPLINE
  5
19FEB
330
19F48
100
AcDbEntity
  8
0
100
AcDbSpline
210
0.0
220
0.0
230
1.0
 70
     8
 71
     3
 72
    17
 73
    13
 74
     0
 42
0.000000001
 43
0.0000000001
 40
8.63937979737193
 40
8.63937979737193
 40
8.63937979737193
 40
8.63937979737193
 40
8.9463590772928
 40
8.9463590772928
 40
8.9463590772928
 40
10.21542587983827
 40
10.21542587983827
 40
10.21542587983827
 40
11.48027581027491
 40
11.48027581027491
 40
11.48027581027491
 40
11.78097245096172
 40
11.78097245096172
 40
11.78097245096172
 40
11.78097245096172
 10
-1.295523537200011
 20
-4.10079843521939
 30
0.0
 10
-1.297539422272739
 20
-4.137337287966815
 30
0.0
 10
-1.279423304542106
 20
-4.173909805207811
 30
0.0
 10
-1.239225936433232
 20
-4.207229236724636
 30
0.0
 10
-1.073048123292809
 20
-4.344973336028628
 30
0.0
 10
-0.5430967187592345
 20
-4.402808730688752
 30
0.0
 10
0.0068246510249529
 20
-4.236227377966883
 30
0.0
 10
0.5549187347422123
 20
-4.070199543987083
 30
0.0
 10
1.079329656104325
 20
-3.681500744266839
 30
0.0
 10
1.24166950170405
 20
-3.214886380789521
 30
0.0
 10
1.280263049481376
 20
-3.103956721691221
 30
0.0
 10
1.297681844904018
 20
-2.989969658217015
 30
0.0
 10
1.295759106951652
 20
-2.876016805209986
 30
0.0
  0
SPLINE
  5
19FEC
330
19F48
100
AcDbEntity
  8
0
100
AcDbSpline
210
0.0
220
0.0
230
1.0
 70
     8
 71
     3
 72
    17
 73
    13
 74
     0
 42
0.000000001
 43
0.0000000001
 40
14.92256510455152
 40
14.92256510455152
 40
14.92256510455152
 40
14.92256510455152
 40
15.32117525940054
 40
15.32117525940054
 40
15.32117525940054
 40
16.59406359623497
 40
16.59406359623497
 40
16.59406359623497
 40
17.85820524943876
 40
17.85820524943876
 40
17.85820524943876
 40
18.06415775814131
 40
18.06415775814131
 40
18.06415775814131
 40
18.06415775814131
 10
-1.293571486377589
 20
-1.651341472909562
 30
0.0
 10
-1.295898469601184
 20
-1.698901266213068
 30
0.0
 10
-1.265125198387098
 20
-1.746424329184441
 30
0.0
 10
-1.198081736060046
 20
-1.786533069215736
 30
0.0
 10
-0.9839907496188548
 20
-1.914612965750976
 30
0.0
 10
-0.4180988539457563
 20
-1.943159928137894
 30
0.0
 10
0.1306916636578035
 20
-1.745733560575579
 30
0.0
 10
0.6757111536715268
 20
-1.549663813171877
 30
0.0
 10
1.160502815542209
 20
-1.133505475109015
 30
0.0
 10
1.272526633195714
 20
-0.6596453496228994
 30
0.0
 10
1.290777425123743
 20
-0.5824446012964457
 30
0.0
 10
1.298851836202794
 20
-0.5043776545634305
 30
0.0
 10
1.297524439855088
 20
-0.4263919977822384
 30
0.0
  0
SPLINE
  5
19FED
330
19F48
100
AcDbEntity
  8
0
100
AcDbSpline
210
0.0
220
0.0
230
1.0
 70
     8
 71
     3
 72
    11
 73
     7
 74
     0
 42
0.000000001
 43
0.0000000001
 40
21.2057504117311
 40
21.2057504117311
 40
21.2057504117311
 40
21.2057504117311
 40
21.71221421886984
 40
21.71221421886984
 40
21.71221421886984
 40
22.74575045890293
 40
22.74575045890293
 40
22.74575045890293
 40
22.74575045890293
 10
-1.29177691363613
 20
0.7983526883793846
 30
0.0
 10
-1.293685172700499
 20
0.7377431283729763
 30
0.0
 10
-1.243266062222239
 20
0.6772253203670609
 30
0.0
 10
-1.136804937141215
 20
0.6322367758462
 30
0.0
 10
-0.9195506548509291
 20
0.5404290484365393
 30
0.0
 10
-0.4876821759680678
 20
0.5226995828753834
 30
0.0
 10
-0.0400288355129101
 20
0.649045165072566
 30
0.0
  0
LINE
  5
19FEE
330
19F48
100
AcDbEntity
  8
0
100
AcDbLine
 10
-0.0400288355129057
 20
0.649045165072566
 30
0.0
 11
-0.0646619650593096
 21
-0.1897396581207844
 31
0.0
  0
SPLINE
  5
19FEF
330
19F48
100
AcDbEntity
  8
0
100
AcDbSpline
210
0.0
220
0.0
230
1.0
 70
     8
 71
     3
 72
    11
 73
     7
 74
     0
 42
0.000000001
 43
0.0000000001
 40
0.0
 40
0.0
 40
0.0
 40
0.0
 40
1.112617358101977
 40
1.112617358101977
 40
1.112617358101977
 40
1.988472573165074
 40
1.988472573165074
 40
1.988472573165074
 40
1.988472573165074
 10
-0.0646619650593095
 20
-0.1897396581207844
 30
0.0
 10
0.7165790751988648
 20
-0.0069339378756905
 30
0.0
 10
1.375924851572236
 20
0.4449206257973537
 30
0.0
 10
1.614952220904203
 20
0.9597723151519478
 30
0.0
 10
1.803115174185243
 20
1.365064874917978
 30
0.0
 10
1.73131984409239
 20
1.794718016178074
 30
0.0
 10
1.4930061327903
 20
2.14766199165052
 30
0.0
  0
SPLINE
  5
19FF0
330
19F48
100
AcDbEntity
  8
0
100
AcDbSpline
210
0.0
220
0.0
230
1.0
 70
     8
 71
     3
 72
    14
 73
    10
 74
     0
 42
0.000000001
 43
0.0000000001
 40
0.0
 40
0.0
 40
0.0
 40
0.0
 40
0.054208008631754
 40
0.054208008631754
 40
0.1084160172635079
 40
0.1084160172635079
 40
0.1626240258952619
 40
0.1626240258952619
 40
0.2067748987353124
 40
0.2067748987353124
 40
0.2067748987353124
 40
0.2067748987353124
 10
-0.0400288355129054
 20
0.6490451650725682
 30
0.0
 10
0.1347998300569022
 20
0.6829584021136626
 30
0.0
 10
0.3089306339757971
 20
0.7369027970814113
 30
0.0
 10
0.6348909658695032
 20
0.8842652061682754
 30
0.0
 10
0.7833927670939262
 20
0.976190973319011
 30
0.0
 10
1.033611018434778
 20
1.191383021645142
 30
0.0
 10
1.132772992171874
 20
1.312464583539181
 30
0.0
 10
1.254818506556628
 20
1.548786095158682
 30
0.0
 10
1.28752959988511
 20
1.659186098104117
 30
0.0
 10
1.297066204500175
 20
1.771062354786678
 30
0.0
  0
SPLINE
  5
19FF1
330
19F48
100
AcDbEntity
  8
0
100
AcDbSpline
210
0.0
220
0.0
230
1.0
 70
     8
 71
     3
 72
    10
 73
     6
 74
     0
 42
0.000000001
 43
0.0000000001
 40
0.075136302940061
 40
0.075136302940061
 40
0.075136302940061
 40
0.075136302940061
 40
0.1086233849536643
 40
0.1086233849536643
 40
0.1322543528253895
 40
0.1322543528253895
 40
0.1322543528253895
 40
0.1322543528253895
 10
-0.3877710785980289
 20
-12.05155724828179
 30
0.0
 10
-0.451054614897133
 20
-12.06515714412696
 30
0.0
 10
-0.4983623013158307
 20
-12.07191756112217
 30
0.0
 10
-0.5457055427871019
 20
-12.08010793720905
 30
0.0
 10
-0.5551380986109847
 20
-12.0824644255245
 30
0.0
 10
-0.5542775676950443
 20
-12.08588825214657
 30
0.0
  0
LINE
  5
19FF2
330
19F48
100
AcDbEntity
  8
0
100
AcDbLine
 10
0.3609728716241911
 20
-11.88904819267229
 30
0.0
 11
0.2212354448563762
 21
-11.33344271755154
 31
0.0
  0
SPLINE
  5
19FF3
330
19F48
100
AcDbEntity
  8
0
100
AcDbSpline
210
0.0
220
0.0
230
1.0
 70
     8
 71
     3
 72
    16
 73
    12
 74
     0
 42
0.000000001
 43
0.0000000001
 40
0.1939672098625435
 40
0.1939672098625435
 40
0.1939672098625435
 40
0.1939672098625435
 40
0.1966992853871793
 40
0.1966992853871793
 40
0.2380794626733607
 40
0.2380794626733607
 40
0.2804511526679092
 40
0.2804511526679092
 40
0.3129490350336377
 40
0.3129490350336377
 40
0.3464489876903638
 40
0.3464489876903638
 40
0.3464489876903638
 40
0.3464489876903638
 10
-0.6729896316058155
 20
-11.61207127094254
 30
0.0
 10
-0.6727229760420627
 20
-11.61191495313756
 30
0.0
 10
-0.6723357955084831
 20
-11.6117659746706
 30
0.0
 10
-0.6641289262039596
 20
-11.60944000726898
 30
0.0
 10
-0.6289249922151962
 20
-11.60841489653551
 30
0.0
 10
-0.5080171148097536
 20
-11.59349103177338
 30
0.0
 10
-0.4230107274480119
 20
-11.5794854997837
 30
0.0
 10
-0.2430678151550536
 20
-11.53283538811335
 30
0.0
 10
-0.1565508574451059
 20
-11.50568957300567
 30
0.0
 10
0.0282391986990496
 20
-11.43323435437419
 30
0.0
 10
0.1252914692650967
 20
-11.38797474379373
 30
0.0
 10
0.2212354448563717
 20
-11.33344271755155
 30
0.0
  0
SPLINE
  5
19FF4
330
19F48
100
AcDbEntity
  8
0
100
AcDbSpline
210
0.0
220
0.0
230
1.0
 70
     8
 71
     3
 72
    11
 73
     7
 74
     0
 42
0.000000001
 43
0.0000000001
 40
0.0
 40
0.0
 40
0.0
 40
0.0
 40
1.265274109621229
 40
1.265274109621229
 40
1.265274109621229
 40
2.193730441253853
 40
2.193730441253853
 40
2.193730441253853
 40
2.193730441253853
 10
0.3609728716241918
 20
-11.88904819267229
 30
0.0
 10
-0.2241412027164828
 20
-12.10487838026111
 30
0.0
 10
-0.7942351289623745
 20
-12.07830991246843
 30
0.0
 10
-1.010662888529372
 20
-11.97633297603424
 30
0.0
 10
-1.169477268894111
 20
-11.90150244595949
 30
0.0
 10
-1.137355982522217
 20
-11.80090497782963
 30
0.0
 10
-0.9821048631001328
 20
-11.75322272538011
 30
0.0
  0
SPLINE
  5
19FF5
330
19F48
100
AcDbEntity
  8
0
100
AcDbSpline
210
0.0
220
0.0
230
1.0
 70
     8
 71
     3
 72
    11
 73
     7
 74
     0
 42
0.000000001
 43
0.0000000001
 40
3.836731305045892
 40
3.836731305045892
 40
3.836731305045892
 40
3.836731305045892
 40
3.875894810845957
 40
3.875894810845957
 40
3.875894810845957
 40
4.18879020478639
 40
4.18879020478639
 40
4.18879020478639
 40
4.18879020478639
 10
0.3356438320721802
 20
-12.1881475799106
 30
0.0
 10
0.3443018871441387
 20
-12.19679274330428
 30
0.0
 10
0.3527859502952504
 20
-12.20554204830506
 30
0.0
 10
0.3610867627804492
 20
-12.2143940041954
 30
0.0
 10
0.4274057998411643
 20
-12.28511638128783
 30
0.0
 10
0.4831988168155489
 20
-12.36118619424633
 30
0.0
 10
0.5266903843366038
 20
-12.44016807852246
 30
0.0
  0
SPLINE
  5
19FF6
330
19F48
100
AcDbEntity
  8
0
100
AcDbSpline
210
0.0
220
0.0
230
1.0
 70
     8
 71
     3
 72
     8
 73
     4
 74
     0
 42
0.000000001
 43
0.0000000001
 40
0.0014773591046757
 40
0.0014773591046757
 40
0.0014773591046757
 40
0.0014773591046757
 40
0.0229697846696463
 40
0.0229697846696463
 40
0.0229697846696463
 40
0.0229697846696463
 10
-0.5537158195158209
 20
-12.08812840721762
 30
0.0
 10
-0.5867091981051976
 20
-12.07279042310932
 30
0.0
 10
-0.6150764463867629
 20
-12.06168582981743
 30
0.0
 10
-0.6375169529018701
 20
-12.05381037321169
 30
0.0
  0
SPLINE
  5
19FF7
330
19F48
100
AcDbEntity
  8
0
100
AcDbSpline
210
0.0
220
0.0
230
1.0
 70
     8
 71
     3
 72
    10
 73
     6
 74
     0
 42
0.000000001
 43
0.0000000001
 40
0.0
 40
0.0
 40
0.0
 40
0.0
 40
0.0513145812676863
 40
0.0513145812676863
 40
0.0794204684782579
 40
0.0794204684782579
 40
0.0794204684782579
 40
0.0794204684782579
 10
-0.9863516863940585
 20
-11.751393707983
 30
0.0
 10
-0.953261792443653
 20
-11.74193516626817
 30
0.0
 10
-0.8938703263485109
 20
-11.72255694020174
 30
0.0
 10
-0.7736767087817702
 20
-11.66741385745755
 30
0.0
 10
-0.7252394433761495
 20
-11.64280637883737
 30
0.0
 10
-0.6729896798558756
 20
-11.61207214377954
 30
0.0
  0
ENDBLK
  5
19F4A
330
19F48
100
AcDbEntity
  8
0
100
AcDbBlockEnd
  0
ENDSEC
  0
SECTION
  2
ENTITIES
  0
INSERT
  5
19FF8
330
1F
100
AcDbEntity
  8
0
100
AcDbBlockReference
  2
TTFA442X35T-20-Front
 10
0.0
 20
0.0
 30
0.0
  0
INSERT
  5
19FF9
330
1F
100
AcDbEntity
  8
0
100
AcDbBlockReference
  2
TTFA442X35T-20-Top
 10
0.0
 20
-45.75981062746341
 30
0.0
  0
INSERT
  5
19FFA
330
1F
100
AcDbEntity
  8
0
100
AcDbBlockReference
  2
TTFA442X35T-20-ISO
 10
14.25981062746341
 20
-58.57072701880323
 30
0.0
  0
MTEXT
  5
19FFB
330
1F
100
AcDbEntity
  8
0
100
AcDbMText
 10
0.0
 20
-56.51962125492682
 30
0.0
 40
0.978164602496674
 41
0.0
 71
     5
 72
     5
  1
TTFA44.2X35T-20
 73
     1
 44
1.0
1001
ACAD
1000
MTEXTBEGIN
1070
    73
1070
     1
1070
    44
1040
1.0
1070
    74
1070
     0
1000
MTEXTEND
  0
ENDSEC
  0
SECTION
  2
OBJECTS
  0
DICTIONARY
  5
C
330
0
100
AcDbDictionary
281
     1
  3
ACAD_CIP_PREVIOUS_PRODUCT_INFO
350
216
  3
ACAD_COLOR
350
6B
  3
ACAD_DETAILVIEWSTYLE
350
21B
  3
ACAD_GROUP
350
D
  3
ACAD_LAYOUT
350
1A
  3
ACAD_MATERIAL
350
6A
  3
ACAD_MLEADERSTYLE
350
12D
  3
ACAD_MLINESTYLE
350
17
  3
ACAD_PLOTSETTINGS
350
19
  3
ACAD_PLOTSTYLENAME
350
E
  3
ACAD_SCALELIST
350
10C
  3
ACAD_SECTIONVIEWSTYLE
350
219
  3
ACAD_TABLESTYLE
350
7E
  3
ACAD_VISUALSTYLE
350
EF
  3
ACDB_RECOMPOSE_DATA
350
1A0FC
  3
AcDbVariableDictionary
350
5E
  3
DWGPROPS
350
1A0FD
  0
DICTIONARY
  5
1A04C
330
8
100
AcDbDictionary
280
     1
281
     1
  0
DICTIONARY
  5
1FF
330
2
100
AcDbDictionary
280
     1
281
     1
  3
ACAD_LAYERSTATES
360
200
  0
DICTIONARY
  5
13C
330
10
100
AcDbDictionary
280
     1
281
     1
  0
DICTIONARY
  5
1CE
330
1F
100
AcDbDictionary
280
     1
281
     1
  3
ACAD_LAYOUTSELFREF
360
1A054
  0
DICTIONARY
  5
19FFF
330
D2
100
AcDbDictionary
280
     1
281
     1
  3
ACAD_LAYOUTSELFREF
360
1A05D
  0
DICTIONARY
  5
1A001
330
D6
100
AcDbDictionary
280
     1
281
     1
  3
ACAD_LAYOUTSELFREF
360
1A060
  0
XRECORD
  5
216
102
{ACAD_REACTORS
330
C
102
}
330
C
100
AcDbXrecord
280
     1
300
ACD
300
2021
300
87393ACD_2021_0F
  0
DICTIONARY
  5
6B
102
{ACAD_REACTORS
330
C
102
}
330
C
100
AcDbDictionary
281
     1
  0
DICTIONARY
  5
21B
102
{ACAD_REACTORS
330
C
102
}
330
C
100
AcDbDictionary
281
     1
  3
Metric50
350
21C
  0
DICTIONARY
  5
D
102
{ACAD_REACTORS
330
C
102
}
330
C
100
AcDbDictionary
281
     1
  0
DICTIONARY
  5
1A
102
{ACAD_REACTORS
330
C
102
}
330
C
100
AcDbDictionary
281
     1
  3
Layout1
350
D3
  3
Layout2
350
D7
  3
Model
350
22
  0
DICTIONARY
  5
6A
102
{ACAD_REACTORS
330
C
102
}
330
C
100
AcDbDictionary
281
     1
  3
ByBlock
350
ED
  3
ByLayer
350
EC
  3
Global
350
EE
  0
DICTIONARY
  5
12D
102
{ACAD_REACTORS
330
C
102
}
330
C
100
AcDbDictionary
281
     1
  3
Standard
350
12E
  0
DICTIONARY
  5
17
102
{ACAD_REACTORS
330
C
102
}
330
C
100
AcDbDictionary
281
     1
  3
Standard
350
18
  0
DICTIONARY
  5
19
102
{ACAD_REACTORS
330
C
102
}
330
C
100
AcDbDictionary
281
     1
  0
ACDBDICTIONARYWDFLT
  5
E
102
{ACAD_REACTORS
330
C
102
}
330
C
100
AcDbDictionary
281
     1
  3
Normal
350
F
100
AcDbDictionaryWithDefault
340
F
  0
DICTIONARY
  5
10C
102
{ACAD_REACTORS
330
C
102
}
330
C
100
AcDbDictionary
281
     1
  3
A0
350
10D
  3
A1
350
1BE
  3
A2
350
1BF
  3
A3
350
1C0
  3
A4
350
1C1
  3
A5
350
1C2
  3
A6
350
1C3
  3
A7
350
1C4
  3
A8
350
1C5
  3
A9
350
1C6
  3
B0
350
1C7
  3
B1
350
1C8
  3
B2
350
1C9
  3
B3
350
1CA
  3
B4
350
1CB
  3
B5
350
1CC
  3
B6
350
1CD
  0
DICTIONARY
  5
219
102
{ACAD_REACTORS
330
C
102
}
330
C
100
AcDbDictionary
281
     1
  3
Metric50
350
21A
  0
DICTIONARY
  5
7E
102
{ACAD_REACTORS
330
C
102
}
330
C
100
AcDbDictionary
281
     1
  3
Standard
350
7F
  0
DICTIONARY
  5
EF
102
{ACAD_REACTORS
330
C
102
}
330
C
100
AcDbDictionary
281
     1
  3
2dWireframe
350
F5
  3
Basic
350
F4
  3
Brighten
350
FB
  3
ColorChange
350
FF
  3
Conceptual
350
F8
  3
Dim
350
FA
  3
EdgeColorOff
350
1E6
  3
Facepattern
350
FE
  3
Flat
350
F0
  3
FlatWithEdges
350
F1
  3
Gouraud
350
F2
  3
GouraudWithEdges
350
F3
  3
Hidden
350
F7
  3
JitterOff
350
1E4
  3
Linepattern
350
FD
  3
OverhangOff
350
1E5
  3
Realistic
350
F9
  3
Shaded
350
1F3
  3
Shaded with edges
350
1F2
  3
Shades of Gray
350
1EF
  3
Sketchy
350
1F0
  3
Thicken
350
FC
  3
Wireframe
350
F6
  3
X-Ray
350
1F1
  0
XRECORD
  5
1A0FC
102
{ACAD_REACTORS
330
C
102
}
330
C
100
AcDbXrecord
280
     1
 90
        1
330
7F
  0
DICTIONARY
  5
5E
102
{ACAD_REACTORS
330
C
102
}
330
C
100
AcDbDictionary
281
     1
  3
CANNOSCALE
350
146
  3
CENTEREXE
350
259
  3
CENTERLTYPEFILE
350
25A
  3
CMLEADERSTYLE
350
145
  3
CTABLESTYLE
350
84
  3
CVIEWDETAILSTYLE
350
227
  3
CVIEWSECTIONSTYLE
350
228
  3
DIMASSOC
350
5F
  3
HIDETEXT
350
63
  3
INDEXCTL
350
1A0A9
  3
LAYEREVAL
350
1AE
  3
LAYERNOTIFY
350
1AF
  3
LIGHTINGUNITS
350
1A0A7
  3
MSLTSCALE
350
1A0A6
  3
PSOLHEIGHT
350
1A0F9
  3
PSOLWIDTH
350
1A0F8
  3
SORTENTS
350
1A0A8
  3
XCLIPFRAME
350
1A0FA
  0
XRECORD
  5
1A0FD
102
{ACAD_REACTORS
330
C
102
}
330
C
100
AcDbXrecord
280
     1
  1
DWGPROPS COOKIE
  2

  3

  4

  6

  7

  8
KhuNguyen
  9

300
=
301
=
302
=
303
=
304
=
305
=
306
=
307
=
308
=
309
=
 40
0.0065972222222222
 41
2460476.646099537
 42
2460476.69619213
  1

 90
        0
  0
DICTIONARY
  5
200
102
{ACAD_REACTORS
330
1FF
102
}
330
1FF
100
AcDbDictionary
281
     1
  0
XRECORD
  5
1A054
102
{ACAD_REACTORS
330
1CE
102
}
330
1CE
100
AcDbXrecord
280
     1
340
1F
  0
XRECORD
  5
1A05D
102
{ACAD_REACTORS
330
19FFF
102
}
330
19FFF
100
AcDbXrecord
280
     1
340
D2
  0
XRECORD
  5
1A060
102
{ACAD_REACTORS
330
1A001
102
}
330
1A001
100
AcDbXrecord
280
     1
340
D6
  0
ACDBDETAILVIEWSTYLE
  5
21C
102
{ACAD_XDICTIONARY
360
1A13C
102
}
102
{ACAD_REACTORS
330
21B
102
}
330
21B
100
AcDbModelDocViewStyle
 70
     0
  3
Metric50
290
     0
100
AcDbDetailViewStyle
 70
     0
 71
     0
 90
        3
 71
     1
340
11
 40
5.0
340
0
 40
5.0
300

 40
0.0
280
     1
 71
     2
340
16
 90
       25
 71
     3
340
11
 40
5.0
 90
        0
 40
15.0
 90
        1
300
%<\AcVar ViewDetailId>% (%<\AcVar ViewScale \f "%sn">%)
 71
     4
340
16
 90
       25
340
16
 90
       25
280
     0
  0
LAYOUT
  5
D3
102
{ACAD_XDICTIONARY
360
1A101
102
}
102
{ACAD_REACTORS
330
1A
102
}
330
1A
100
AcDbPlotSettings
  1

  2
C:\Documents and Settings\basas\Application Data\Autodesk\AutoCAD 2005\R16.1\enu\plotters\Default Windows System Printer.pc3
  4

  6

 40
0.0
 41
0.0
 42
0.0
 43
0.0
 44
0.0
 45
0.0
 46
0.0
 47
0.0
 48
0.0
 49
0.0
140
0.0
141
0.0
142
1.0
143
1.0
 70
   688
 72
     0
 73
     0
 74
     5
  7

 75
    16
147
1.0
148
0.0
149
0.0
100
AcDbLayout
  1
Layout1
 70
     1
 71
     1
 10
0.0
 20
0.0
 11
12.0
 21
9.0
 12
0.0
 22
0.0
 32
0.0
 14
0.0
 24
0.0
 34
0.0
 15
0.0
 25
0.0
 35
0.0
146
0.0
 13
0.0
 23
0.0
 33
0.0
 16
1.0
 26
0.0
 36
0.0
 17
0.0
 27
1.0
 37
0.0
 76
     0
330
D2
  0
LAYOUT
  5
D7
102
{ACAD_XDICTIONARY
360
1A103
102
}
102
{ACAD_REACTORS
330
1A
102
}
330
1A
100
AcDbPlotSettings
  1

  2
C:\Documents and Settings\basas\Application Data\Autodesk\AutoCAD 2005\R16.1\enu\plotters\Default Windows System Printer.pc3
  4

  6

 40
0.0
 41
0.0
 42
0.0
 43
0.0
 44
0.0
 45
0.0
 46
0.0
 47
0.0
 48
0.0
 49
0.0
140
0.0
141
0.0
142
1.0
143
1.0
 70
   688
 72
     0
 73
     0
 74
     5
  7

 75
    16
147
1.0
148
0.0
149
0.0
100
AcDbLayout
  1
Layout2
 70
     1
 71
     2
 10
0.0
 20
0.0
 11
12.0
 21
9.0
 12
0.0
 22
0.0
 32
0.0
 14
0.0
 24
0.0
 34
0.0
 15
0.0
 25
0.0
 35
0.0
146
0.0
 13
0.0
 23
0.0
 33
0.0
 16
1.0
 26
0.0
 36
0.0
 17
0.0
 27
1.0
 37
0.0
 76
     0
330
D6
  0
LAYOUT
  5
22
102
{ACAD_XDICTIONARY
360
1A0FE
102
}
102
{ACAD_REACTORS
330
1A
102
}
330
1A
100
AcDbPlotSettings
  1

  2
none_device
  4
ISO_A4_(210.00_x_297.00_MM)
  6

 40
7.5
 41
20.0
 42
7.5
 43
20.0
 44
210.0
 45
297.0
 46
11.54999923706054
 47
-13.65000009536743
 48
0.0
 49
0.0
140
0.0
141
0.0
142
1.0
143
8.704084754739808
 70
 11952
 72
     1
 73
     0
 74
     0
  7

 75
     0
147
0.1148885871608098
148
0.0
149
0.0
100
AcDbLayout
  1
Model
 70
     1
 71
     0
 10
0.0
 20
0.0
 11
12.0
 21
9.0
 12
0.0
 22
0.0
 32
0.0
 14
0.0
 24
0.0
 34
0.0
 15
0.0
 25
0.0
 35
0.0
146
0.0
 13
0.0
 23
0.0
 33
0.0
 16
1.0
 26
0.0
 36
0.0
 17
0.0
 27
1.0
 37
0.0
 76
     0
330
1F
331
EA
1001
ACAD_PSEXT
1000
None
1000
None
1000
Not applicable
1000
The layout will not be plotted unless a new plotter configuration name is selected.
1070
     0
  0
MATERIAL
  5
ED
102
{ACAD_XDICTIONARY
360
1F9
102
}
102
{ACAD_REACTORS
330
6A
102
}
330
6A
100
AcDbMaterial
  1
ByBlock
  0
MATERIAL
  5
EC
102
{ACAD_XDICTIONARY
360
1F7
102
}
102
{ACAD_REACTORS
330
6A
102
}
330
6A
100
AcDbMaterial
  1
ByLayer
  0
MATERIAL
  5
EE
102
{ACAD_XDICTIONARY
360
173
102
}
102
{ACAD_REACTORS
330
6A
102
}
330
6A
100
AcDbMaterial
  1
Global
 43
0.0007999999797903
 43
0.0
 43
0.0
 43
0.0
 43
0.0
 43
0.0007999999797903
 43
0.0
 43
0.0
 43
0.0
 43
0.0
 43
1.0
 43
0.0
 43
0.0
 43
0.0
 43
0.0
 43
1.0
 49
0.0007999999797903
 49
0.0
 49
0.0
 49
0.0
 49
0.0
 49
0.0007999999797903
 49
0.0
 49
0.0
 49
0.0
 49
0.0
 49
1.0
 49
0.0
 49
0.0
 49
0.0
 49
0.0
 49
1.0
142
0.0007999999797903
142
0.0
142
0.0
142
0.0
142
0.0
142
0.0007999999797903
142
0.0
142
0.0
142
0.0
142
0.0
142
1.0
142
0.0
142
0.0
142
0.0
142
0.0
142
1.0
144
0.0007999999797903
144
0.0
144
0.0
144
0.0
144
0.0
144
0.0007999999797903
144
0.0
144
0.0
144
0.0
144
0.0
144
1.0
144
0.0
144
0.0
144
0.0
144
0.0
144
1.0
1001
ACAD
1070
    -1
1070
     3
1070
     0
1000

1071
        0
1070
     0
  0
MLEADERSTYLE
  5
12E
102
{ACAD_XDICTIONARY
360
1A128
102
}
102
{ACAD_REACTORS
330
12D
102
}
330
12D
100
AcDbMLeaderStyle
170
     2
171
     1
172
     0
 90
        2
 40
0.0
 41
0.0
173
     1
 91
-1056964608
340
14
 92
       -2
290
     1
 42
2.0
291
     1
 43
8.0
  3
Standard
 44
4.0
300

342
11
174
     1
178
     1
175
     1
176
     0
 93
-1056964608
 45
4.0
292
     0
297
     0
 46
4.0
 94
-1056964608
 47
1.0
 49
1.0
140
1.0
293
     1
141
0.0
294
     1
177
     0
142
1.0
295
     0
296
     0
143
3.75
1001
ACAD_MLEADERVER
1070
     2
  0
MLINESTYLE
  5
18
102
{ACAD_REACTORS
330
17
102
}
330
17
100
AcDbMlineStyle
  2
STANDARD
 70
     0
  3

 62
   256
 51
90.0
 52
90.0
 71
     2
 49
0.5
 62
   256
  6
BYLAYER
 49
-0.5
 62
   256
  6
BYLAYER
  0
ACDBPLACEHOLDER
  5
F
102
{ACAD_REACTORS
330
E
102
}
330
E
  0
SCALE
  5
10D
102
{ACAD_REACTORS
330
10C
102
}
330
10C
100
AcDbScale
 70
     0
300
1:1
140
1.0
141
1.0
290
     1
  0
SCALE
  5
1BE
102
{ACAD_REACTORS
330
10C
102
}
330
10C
100
AcDbScale
 70
     0
300
1:2
140
1.0
141
2.0
290
     0
  0
SCALE
  5
1BF
102
{ACAD_REACTORS
330
10C
102
}
330
10C
100
AcDbScale
 70
     0
300
1:4
140
1.0
141
4.0
290
     0
  0
SCALE
  5
1C0
102
{ACAD_REACTORS
330
10C
102
}
330
10C
100
AcDbScale
 70
     0
300
1:5
140
1.0
141
5.0
290
     0
  0
SCALE
  5
1C1
102
{ACAD_REACTORS
330
10C
102
}
330
10C
100
AcDbScale
 70
     0
300
1:8
140
1.0
141
8.0
290
     0
  0
SCALE
  5
1C2
102
{ACAD_REACTORS
330
10C
102
}
330
10C
100
AcDbScale
 70
     0
300
1:10
140
1.0
141
10.0
290
     0
  0
SCALE
  5
1C3
102
{ACAD_REACTORS
330
10C
102
}
330
10C
100
AcDbScale
 70
     0
300
1:16
140
1.0
141
16.0
290
     0
  0
SCALE
  5
1C4
102
{ACAD_REACTORS
330
10C
102
}
330
10C
100
AcDbScale
 70
     0
300
1:20
140
1.0
141
20.0
290
     0
  0
SCALE
  5
1C5
102
{ACAD_REACTORS
330
10C
102
}
330
10C
100
AcDbScale
 70
     0
300
1:30
140
1.0
141
30.0
290
     0
  0
SCALE
  5
1C6
102
{ACAD_REACTORS
330
10C
102
}
330
10C
100
AcDbScale
 70
     0
300
1:40
140
1.0
141
40.0
290
     0
  0
SCALE
  5
1C7
102
{ACAD_REACTORS
330
10C
102
}
330
10C
100
AcDbScale
 70
     0
300
1:50
140
1.0
141
50.0
290
     0
  0
SCALE
  5
1C8
102
{ACAD_REACTORS
330
10C
102
}
330
10C
100
AcDbScale
 70
     0
300
1:100
140
1.0
141
100.0
290
     0
  0
SCALE
  5
1C9
102
{ACAD_REACTORS
330
10C
102
}
330
10C
100
AcDbScale
 70
     0
300
2:1
140
2.0
141
1.0
290
     0
  0
SCALE
  5
1CA
102
{ACAD_REACTORS
330
10C
102
}
330
10C
100
AcDbScale
 70
     0
300
4:1
140
4.0
141
1.0
290
     0
  0
SCALE
  5
1CB
102
{ACAD_REACTORS
330
10C
102
}
330
10C
100
AcDbScale
 70
     0
300
8:1
140
8.0
141
1.0
290
     0
  0
SCALE
  5
1CC
102
{ACAD_REACTORS
330
10C
102
}
330
10C
100
AcDbScale
 70
     0
300
10:1
140
10.0
141
1.0
290
     0
  0
SCALE
  5
1CD
102
{ACAD_REACTORS
330
10C
102
}
330
10C
100
AcDbScale
 70
     0
300
100:1
140
100.0
141
1.0
290
     0
  0
ACDBSECTIONVIEWSTYLE
  5
21A
102
{ACAD_XDICTIONARY
360
1A13A
102
}
102
{ACAD_REACTORS
330
219
102
}
330
219
100
AcDbModelDocViewStyle
 70
     0
  3
Metric50
290
     0
100
AcDbSectionViewStyle
 70
     0
 71
     0
 90
      102
 71
     1
340
11
 40
5.0
340
0
340
0
 40
5.0
300
I, O, Q, S, X, Z
 40
10.0
 90
        0
 40
2.5
 90
        0
 71
     2
340
16
 90
       25
340
16
 90
       50
 40
5.0
 40
2.5
 40
5.0
 71
     3
340
11
 40
5.0
 90
        0
 40
15.0
 90
        1
300
%<\AcVar ViewSectionStartId>%-%<\AcVar ViewSectionEndId>% (%<\AcVar ViewScale \f "%sn">%)
 71
     4
300
ANSI31
 40
1.0
 90
        0
290
     0
290
     0
 90
        6
 40
0.0
 40
1.570796326794896
 40
0.2617993877991494
 40
1.308996938995747
 40
-0.2617993877991494
 40
1.832595714594046
  0
TABLESTYLE
  5
7F
102
{ACAD_XDICTIONARY
360
162
102
}
102
{ACAD_REACTORS
330
7E
102
}
330
7E
100
AcDbTableStyle
  3
Standard
 70
     0
 71
     0
 40
1.5
 41
1.5
280
     0
281
     0
  7
Standard
140
4.5
170
     2
 62
     0
 63
     7
283
     0
274
    -2
284
     1
 64
     0
275
    -2
285
     1
 65
     0
276
    -2
286
     1
 66
     0
277
    -2
287
     1
 67
     0
278
    -2
288
     1
 68
     0
279
    -2
289
     1
 69
     0
  7
Standard
140
6.0
170
     5
 62
     0
 63
     7
283
     0
274
    -2
284
     1
 64
     0
275
    -2
285
     1
 65
     0
276
    -2
286
     1
 66
     0
277
    -2
287
     1
 67
     0
278
    -2
288
     1
 68
     0
279
    -2
289
     1
 69
     0
  7
Standard
140
4.5
170
     5
 62
     0
 63
     7
283
     0
274
    -2
284
     1
 64
     0
275
    -2
285
     1
 65
     0
276
    -2
286
     1
 66
     0
277
    -2
287
     1
 67
     0
278
    -2
288
     1
 68
     0
279
    -2
289
     1
 69
     0
  0
VISUALSTYLE
  5
F5
102
{ACAD_XDICTIONARY
360
1A112
102
}
102
{ACAD_REACTORS
330
EF
102
}
330
EF
100
AcDbVisualStyle
  2
2dWireframe
 70
     4
 71
     0
 72
     2
 73
     1
 90
        0
 40
-0.6
 41
-30.0
 62
     5
 63
     7
 74
     1
 91
        4
 64
     7
 65
   257
 75
     1
175
     1
 42
1.0
 92
        0
 66
   257
 43
1.0
 76
     1
 77
     6
 78
     2
 67
     7
 79
     5
170
     0
171
     0
290
     0
174
     0
 93
        1
 44
0.0
173
     0
291
     0
 45
0.0
1001
ACAD
1000
AcDbSavedByObjectVersion
1070
     0
  0
VISUALSTYLE
  5
F4
102
{ACAD_XDICTIONARY
360
1A110
102
}
102
{ACAD_REACTORS
330
EF
102
}
330
EF
100
AcDbVisualStyle
  2
Basic
 70
     7
 71
     1
 72
     0
 73
     1
 90
        0
 40
-0.6
 41
-30.0
 62
     5
 63
     7
 74
     0
 91
        4
 64
     7
 65
   257
 75
     1
175
     1
 42
1.0
 92
        8
 66
     7
 43
1.0
 76
     1
 77
     6
 78
     2
 67
     7
 79
     5
170
     0
171
     0
290
     0
174
     0
 93
        1
 44
0.0
173
     0
291
     1
 45
0.0
1001
ACAD
1000
AcDbSavedByObjectVersion
1070
     0
  0
VISUALSTYLE
  5
FB
102
{ACAD_XDICTIONARY
360
1A11E
102
}
102
{ACAD_REACTORS
330
EF
102
}
330
EF
100
AcDbVisualStyle
  2
Brighten
 70
    12
 71
     2
 72
     2
 73
     1
 90
        0
 40
-0.6
 41
-30.0
 62
     5
 63
     7
 74
     1
 91
        4
 64
     7
 65
   257
 75
     1
175
     1
 42
1.0
 92
        8
 66
     7
 43
1.0
 76
     1
 77
     6
 78
     2
 67
     7
 79
     5
170
     0
171
     0
290
     0
174
     0
 93
        1
 44
50.0
173
     0
291
     1
 45
0.0
1001
ACAD
1000
AcDbSavedByObjectVersion
1070
     0
  0
VISUALSTYLE
  5
FF
102
{ACAD_XDICTIONARY
360
1A126
102
}
102
{ACAD_REACTORS
330
EF
102
}
330
EF
100
AcDbVisualStyle
  2
ColorChange
 70
    16
 71
     2
 72
     2
 73
     3
 90
        0
 40
-0.6
 41
-30.0
 62
     5
 63
     8
 74
     1
 91
        4
 64
     7
 65
   257
 75
     1
175
     1
 42
1.0
 92
        8
 66
     8
 43
1.0
 76
     1
 77
     6
 78
     2
 67
     7
 79
     5
170
     0
171
     0
290
     0
174
     0
 93
        1
 44
0.0
173
     0
291
     1
 45
0.0
1001
ACAD
1000
AcDbSavedByObjectVersion
1070
     0
  0
VISUALSTYLE
  5
F8
102
{ACAD_XDICTIONARY
360
1A118
102
}
102
{ACAD_REACTORS
330
EF
102
}
330
EF
100
AcDbVisualStyle
  2
Conceptual
 70
     9
 71
     3
 72
     2
 73
     1
 90
        0
 40
-0.6
 41
-30.0
 62
     5
 63
     7
 74
     2
 91
        2
 64
     7
 65
   257
 75
     1
175
     1
 42
40.0
 92
        8
 66
     7
 43
1.0
 76
     1
 77
     6
 78
     2
 67
     7
 79
     3
170
     0
171
     0
290
     0
174
     0
 93
        1
 44
0.0
173
     0
291
     0
 45
0.0
1001
ACAD
1000
AcDbSavedByObjectVersion
1070
     0
  0
VISUALSTYLE
  5
FA
102
{ACAD_XDICTIONARY
360
1A11C
102
}
102
{ACAD_REACTORS
330
EF
102
}
330
EF
100
AcDbVisualStyle
  2
Dim
 70
    11
 71
     2
 72
     2
 73
     1
 90
        0
 40
-0.6
 41
-30.0
 62
     5
 63
     7
 74
     1
 91
        4
 64
     7
 65
   257
 75
     1
175
     1
 42
1.0
 92
        8
 66
     7
 43
1.0
 76
     1
 77
     6
 78
     2
 67
     7
 79
     5
170
     0
171
     0
290
     0
174
     0
 93
        1
 44
-50.0
173
     0
291
     1
 45
0.0
1001
ACAD
1000
AcDbSavedByObjectVersion
1070
     0
  0
VISUALSTYLE
  5
1E6
102
{ACAD_XDICTIONARY
360
1A12E
102
}
102
{ACAD_REACTORS
330
EF
102
}
330
EF
100
AcDbVisualStyle
  2
EdgeColorOff
 70
    22
 71
     2
 72
     2
 73
     0
 90
        0
 40
-0.6
 41
-30.0
 62
     5
 63
     7
 74
     1
 91
        4
 64
     7
 65
   257
 75
     1
175
     1
 42
1.0
 92
        8
 66
     7
 43
1.0
 76
     1
 77
     6
 78
     2
 67
     7
 79
     5
170
     0
171
     0
290
     0
174
     0
 93
        1
 44
0.0
173
     0
291
     1
 45
0.0
1001
ACAD
1000
AcDbSavedByObjectVersion
1070
     0
  0
VISUALSTYLE
  5
FE
102
{ACAD_XDICTIONARY
360
1A124
102
}
102
{ACAD_REACTORS
330
EF
102
}
330
EF
100
AcDbVisualStyle
  2
Facepattern
 70
    15
 71
     2
 72
     2
 73
     1
 90
        0
 40
-0.6
 41
-30.0
 62
     5
 63
     7
 74
     1
 91
        4
 64
     7
 65
   257
 75
     1
175
     1
 42
1.0
 92
        8
 66
     7
 43
1.0
 76
     1
 77
     6
 78
     2
 67
     7
 79
     5
170
     0
171
     0
290
     0
174
     0
 93
        1
 44
0.0
173
     0
291
     1
 45
0.0
1001
ACAD
1000
AcDbSavedByObjectVersion
1070
     0
  0
VISUALSTYLE
  5
F0
102
{ACAD_XDICTIONARY
360
1A108
102
}
102
{ACAD_REACTORS
330
EF
102
}
330
EF
100
AcDbVisualStyle
  2
Flat
 70
     0
 71
     2
 72
     1
 73
     1
 90
        2
 40
-0.6
 41
30.0
 62
     5
 63
     7
 74
     0
 91
        0
 64
     7
 65
   257
 75
     1
175
     1
 42
1.0
 92
        8
 66
     7
 43
1.0
 76
     1
 77
     6
 78
     2
 67
     7
 79
     5
170
     0
171
     0
290
     0
174
     0
 93
       13
 44
0.0
173
     0
291
     1
 45
0.0
1001
ACAD
1000
AcDbSavedByObjectVersion
1070
     0
  0
VISUALSTYLE
  5
F1
102
{ACAD_XDICTIONARY
360
1A10A
102
}
102
{ACAD_REACTORS
330
EF
102
}
330
EF
100
AcDbVisualStyle
  2
FlatWithEdges
 70
     1
 71
     2
 72
     1
 73
     1
 90
        2
 40
-0.6
 41
30.0
 62
     5
 63
     7
 74
     1
 91
        0
 64
     7
 65
   257
 75
     1
175
     1
 42
1.0
 92
        0
 66
   257
 43
1.0
 76
     1
 77
     6
 78
     2
 67
     7
 79
     5
170
     0
171
     0
290
     0
174
     0
 93
       13
 44
0.0
173
     0
291
     1
 45
0.0
1001
ACAD
1000
AcDbSavedByObjectVersion
1070
     0
  0
VISUALSTYLE
  5
F2
102
{ACAD_XDICTIONARY
360
1A10C
102
}
102
{ACAD_REACTORS
330
EF
102
}
330
EF
100
AcDbVisualStyle
  2
Gouraud
 70
     2
 71
     2
 72
     2
 73
     1
 90
        2
 40
-0.6
 41
30.0
 62
     5
 63
     7
 74
     0
 91
        0
 64
     7
 65
   257
 75
     1
175
     1
 42
1.0
 92
        0
 66
     7
 43
1.0
 76
     1
 77
     6
 78
     2
 67
     7
 79
     5
170
     0
171
     0
290
     0
174
     0
 93
       13
 44
0.0
173
     0
291
     1
 45
0.0
1001
ACAD
1000
AcDbSavedByObjectVersion
1070
     0
  0
VISUALSTYLE
  5
F3
102
{ACAD_XDICTIONARY
360
1A10E
102
}
102
{ACAD_REACTORS
330
EF
102
}
330
EF
100
AcDbVisualStyle
  2
GouraudWithEdges
 70
     3
 71
     2
 72
     2
 73
     1
 90
        2
 40
-0.6
 41
30.0
 62
     5
 63
     7
 74
     1
 91
        0
 64
     7
 65
   257
 75
     1
175
     1
 42
1.0
 92
        0
 66
   257
 43
1.0
 76
     1
 77
     6
 78
     2
 67
     7
 79
     5
170
     0
171
     0
290
     0
174
     0
 93
       13
 44
0.0
173
     0
291
     1
 45
0.0
1001
ACAD
1000
AcDbSavedByObjectVersion
1070
     0
  0
VISUALSTYLE
  5
F7
102
{ACAD_XDICTIONARY
360
1A116
102
}
102
{ACAD_REACTORS
330
EF
102
}
330
EF
100
AcDbVisualStyle
  2
Hidden
 70
     6
 71
     1
 72
     2
 73
     2
 90
        0
 40
-0.6
 41
-30.0
 62
     5
 63
     7
 74
     2
 91
        2
 64
     7
 65
   257
 75
     2
175
     1
 42
40.0
 92
        0
 66
   257
 43
1.0
 76
     1
 77
     6
 78
     2
 67
     7
 79
     3
170
     0
171
     0
290
     0
174
     0
 93
        1
 44
0.0
173
     0
291
     0
 45
0.0
1001
ACAD
1000
AcDbSavedByObjectVersion
1070
     0
  0
VISUALSTYLE
  5
1E4
102
{ACAD_XDICTIONARY
360
1A12A
102
}
102
{ACAD_REACTORS
330
EF
102
}
330
EF
100
AcDbVisualStyle
  2
JitterOff
 70
    20
 71
     2
 72
     2
 73
     0
 90
        0
 40
-0.6
 41
-30.0
 62
     5
 63
     7
 74
     1
 91
        4
 64
     7
 65
   257
 75
     1
175
     1
 42
1.0
 92
       10
 66
     7
 43
1.0
 76
     1
 77
     6
 78
     2
 67
     7
 79
     5
170
     0
171
     0
290
     0
174
     0
 93
        1
 44
0.0
173
     0
291
     1
 45
0.0
1001
ACAD
1000
AcDbSavedByObjectVersion
1070
     0
  0
VISUALSTYLE
  5
FD
102
{ACAD_XDICTIONARY
360
1A122
102
}
102
{ACAD_REACTORS
330
EF
102
}
330
EF
100
AcDbVisualStyle
  2
Linepattern
 70
    14
 71
     2
 72
     2
 73
     1
 90
        0
 40
-0.6
 41
-30.0
 62
     5
 63
     7
 74
     1
 91
        4
 64
     7
 65
   257
 75
     7
175
     7
 42
1.0
 92
        8
 66
     7
 43
1.0
 76
     1
 77
     6
 78
     2
 67
     7
 79
     5
170
     0
171
     0
290
     0
174
     0
 93
        1
 44
0.0
173
     0
291
     1
 45
0.0
1001
ACAD
1000
AcDbSavedByObjectVersion
1070
     0
  0
VISUALSTYLE
  5
1E5
102
{ACAD_XDICTIONARY
360
1A12C
102
}
102
{ACAD_REACTORS
330
EF
102
}
330
EF
100
AcDbVisualStyle
  2
OverhangOff
 70
    21
 71
     2
 72
     2
 73
     0
 90
        0
 40
-0.6
 41
-30.0
 62
     5
 63
     7
 74
     1
 91
        4
 64
     7
 65
   257
 75
     1
175
     1
 42
1.0
 92
        9
 66
     7
 43
1.0
 76
     1
 77
     6
 78
     2
 67
     7
 79
     5
170
     0
171
     0
290
     0
174
     0
 93
        1
 44
0.0
173
     0
291
     1
 45
0.0
1001
ACAD
1000
AcDbSavedByObjectVersion
1070
     0
  0
VISUALSTYLE
  5
F9
102
{ACAD_XDICTIONARY
360
1A11A
102
}
102
{ACAD_REACTORS
330
EF
102
}
330
EF
100
AcDbVisualStyle
  2
Realistic
 70
     8
 71
     2
 72
     2
 73
     0
 90
        2
 40
-0.6
 41
30.0
 62
     5
 63
     7
 74
     0
 91
        0
 64
     7
 65
   257
 75
     1
175
     1
 42
1.0
 92
        8
 66
   257
 43
1.0
 76
     1
 77
     6
 78
     2
 67
     7
 79
     3
170
     0
171
     0
290
     0
174
     0
 93
       13
 44
0.0
173
     0
291
     0
 45
0.0
1001
ACAD
1000
AcDbSavedByObjectVersion
1070
     0
  0
VISUALSTYLE
  5
1F3
102
{ACAD_XDICTIONARY
360
1A138
102
}
102
{ACAD_REACTORS
330
EF
102
}
330
EF
100
AcDbVisualStyle
  2
Shaded
 70
    27
 71
     2
 72
     2
 73
     1
 90
        2
 40
-0.6
 41
30.0
 62
     5
 63
     7
 74
     0
 91
        4
 64
     7
 65
   257
 75
     1
175
     1
 42
1.0
 92
        8
 66
   257
 43
1.0
 76
     1
 77
     6
 78
     2
 67
     8
 79
     3
170
     0
171
     0
290
     0
174
     0
 93
        5
 44
0.0
173
     0
291
     0
 45
0.0
1001
ACAD
1000
AcDbSavedByObjectVersion
1070
     0
  0
VISUALSTYLE
  5
1F2
102
{ACAD_XDICTIONARY
360
1A136
102
}
102
{ACAD_REACTORS
330
EF
102
}
330
EF
100
AcDbVisualStyle
  2
Shaded with edges
 70
    26
 71
     2
 72
     2
 73
     1
 90
        2
 40
-0.6
 41
30.0
 62
     5
 63
     7
 74
     1
 91
        2
 64
     7
 65
   257
 75
     2
175
     1
 42
1.0
 92
        8
 66
   257
 43
1.0
 76
     1
 77
     6
 78
     2
 67
     7
 79
     3
170
     0
171
     0
290
     0
174
     0
 93
        5
 44
0.0
173
     0
291
     0
 45
0.0
1001
ACAD
1000
AcDbSavedByObjectVersion
1070
     0
  0
VISUALSTYLE
  5
1EF
102
{ACAD_XDICTIONARY
360
1A130
102
}
102
{ACAD_REACTORS
330
EF
102
}
330
EF
100
AcDbVisualStyle
  2
Shades of Gray
 70
    23
 71
     2
 72
     2
 73
     3
 90
        0
 40
-0.6
 41
-30.0
 62
     5
 63
     7
 74
     2
 91
        2
 64
     7
 65
     7
 75
     1
175
     1
 42
40.0
 92
        8
 66
     7
 43
1.0
 76
     1
 77
     6
 78
     2
 67
     7
 79
     3
170
     0
171
     0
290
     0
174
     0
 93
        1
 44
0.0
173
     0
291
     0
 45
0.0
1001
ACAD
1000
AcDbSavedByObjectVersion
1070
     0
  0
VISUALSTYLE
  5
1F0
102
{ACAD_XDICTIONARY
360
1A132
102
}
102
{ACAD_REACTORS
330
EF
102
}
330
EF
100
AcDbVisualStyle
  2
Sketchy
 70
    24
 71
     1
 72
     2
 73
     2
 90
        0
 40
-0.6
 41
-30.0
 62
     5
 63
     7
 74
     2
 91
        2
 64
     7
 65
     7
 75
     1
175
     1
 42
40.0
 92
       11
 66
     7
 43
1.0
 76
     1
 77
     6
 78
     2
 67
     7
 79
     6
170
     0
171
     0
290
     0
174
     0
 93
        1
 44
0.0
173
     0
291
     0
 45
0.0
1001
ACAD
1000
AcDbSavedByObjectVersion
1070
     0
  0
VISUALSTYLE
  5
FC
102
{ACAD_XDICTIONARY
360
1A120
102
}
102
{ACAD_REACTORS
330
EF
102
}
330
EF
100
AcDbVisualStyle
  2
Thicken
 70
    13
 71
     2
 72
     2
 73
     1
 90
        0
 40
-0.6
 41
-30.0
 62
     5
 63
     7
 74
     1
 91
        4
 64
     7
 65
   257
 75
     1
175
     1
 42
1.0
 92
       12
 66
     7
 43
1.0
 76
     1
 77
     6
 78
     2
 67
     7
 79
     5
170
     0
171
     0
290
     0
174
     0
 93
        1
 44
0.0
173
     0
291
     1
 45
0.0
1001
ACAD
1000
AcDbSavedByObjectVersion
1070
     0
  0
VISUALSTYLE
  5
F6
102
{ACAD_XDICTIONARY
360
1A114
102
}
102
{ACAD_REACTORS
330
EF
102
}
330
EF
100
AcDbVisualStyle
  2
Wireframe
 70
     5
 71
     0
 72
     2
 73
     0
 90
        0
 40
-0.6
 41
-30.0
 62
     5
 63
     7
 74
     1
 91
        4
 64
     7
 65
   257
 75
     1
175
     1
 42
1.0
 92
        0
 66
   257
 43
1.0
 76
     1
 77
     6
 78
     2
 67
     7
 79
     3
170
     0
171
     0
290
     0
174
     0
 93
        1
 44
0.0
173
     0
291
     0
 45
0.0
1001
ACAD
1000
AcDbSavedByObjectVersion
1070
     0
  0
VISUALSTYLE
  5
1F1
102
{ACAD_XDICTIONARY
360
1A134
102
}
102
{ACAD_REACTORS
330
EF
102
}
330
EF
100
AcDbVisualStyle
  2
X-Ray
 70
    25
 71
     2
 72
     2
 73
     1
 90
        1
 40
0.5
 41
-30.0
 62
     5
 63
     7
 74
     1
 91
        0
 64
     7
 65
   257
 75
     1
175
     1
 42
1.0
 92
        8
 66
     7
 43
1.0
 76
     1
 77
     6
 78
     2
 67
     7
 79
     3
170
     0
171
     0
290
     0
174
     0
 93
       13
 44
0.0
173
     0
291
     0
 45
0.0
1001
ACAD
1000
AcDbSavedByObjectVersion
1070
     0
  0
DICTIONARYVAR
  5
146
102
{ACAD_REACTORS
330
5E
102
}
330
5E
100
DictionaryVariables
280
     0
  1
1:1
  0
DICTIONARYVAR
  5
259
102
{ACAD_REACTORS
330
5E
102
}
330
5E
100
DictionaryVariables
280
     0
  1
3.500000
  0
DICTIONARYVAR
  5
25A
102
{ACAD_REACTORS
330
5E
102
}
330
5E
100
DictionaryVariables
280
     0
  1
acadiso.lin
  0
DICTIONARYVAR
  5
145
102
{ACAD_REACTORS
330
5E
102
}
330
5E
100
DictionaryVariables
280
     0
  1
STANDARD
  0
DICTIONARYVAR
  5
84
102
{ACAD_REACTORS
330
5E
102
}
330
5E
100
DictionaryVariables
280
     0
  1
STANDARD
  0
DICTIONARYVAR
  5
227
102
{ACAD_REACTORS
330
5E
102
}
330
5E
100
DictionaryVariables
280
     0
  1
Metric50
  0
DICTIONARYVAR
  5
228
102
{ACAD_REACTORS
330
5E
102
}
330
5E
100
DictionaryVariables
280
     0
  1
Metric50
  0
DICTIONARYVAR
  5
5F
102
{ACAD_REACTORS
330
5E
102
}
330
5E
100
DictionaryVariables
280
     0
  1
2
  0
DICTIONARYVAR
  5
63
102
{ACAD_REACTORS
330
5E
102
}
330
5E
100
DictionaryVariables
280
     0
  1
1
  0
DICTIONARYVAR
  5
1A0A9
102
{ACAD_REACTORS
330
5E
102
}
330
5E
100
DictionaryVariables
280
     0
  1
0
  0
DICTIONARYVAR
  5
1AE
102
{ACAD_REACTORS
330
5E
102
}
330
5E
100
DictionaryVariables
280
     0
  1
0
  0
DICTIONARYVAR
  5
1AF
102
{ACAD_REACTORS
330
5E
102
}
330
5E
100
DictionaryVariables
280
     0
  1
0
  0
DICTIONARYVAR
  5
1A0A7
102
{ACAD_REACTORS
330
5E
102
}
330
5E
100
DictionaryVariables
280
     0
  1
2
  0
DICTIONARYVAR
  5
1A0A6
102
{ACAD_REACTORS
330
5E
102
}
330
5E
100
DictionaryVariables
280
     0
  1
1
  0
DICTIONARYVAR
  5
1A0F9
102
{ACAD_REACTORS
330
5E
102
}
330
5E
100
DictionaryVariables
280
     0
  1
80.000000
  0
DICTIONARYVAR
  5
1A0F8
102
{ACAD_REACTORS
330
5E
102
}
330
5E
100
DictionaryVariables
280
     0
  1
5.000000
  0
DICTIONARYVAR
  5
1A0A8
102
{ACAD_REACTORS
330
5E
102
}
330
5E
100
DictionaryVariables
280
     0
  1
127
  0
DICTIONARYVAR
  5
1A0FA
102
{ACAD_REACTORS
330
5E
102
}
330
5E
100
DictionaryVariables
280
     0
  1
2
  0
DICTIONARY
  5
1A13C
330
21C
100
AcDbDictionary
280
     1
281
     1
  3
ACAD_XREC_ROUNDTRIP
360
1A13D
  0
DICTIONARY
  5
1A101
330
D3
100
AcDbDictionary
280
     1
281
     1
  3
ACAD_XREC_ROUNDTRIP
360
1A102
  0
DICTIONARY
  5
1A103
330
D7
100
AcDbDictionary
280
     1
281
     1
  3
ACAD_XREC_ROUNDTRIP
360
1A104
  0
DICTIONARY
  5
1A0FE
330
22
100
AcDbDictionary
280
     1
281
     1
  3
ACAD_XREC_ROUNDTRIP
360
1A0FF
  0
DICTIONARY
  5
1F9
330
ED
100
AcDbDictionary
280
     1
281
     1
  3
ACAD_XREC_ROUNDTRIP
360
1A106
  3
FBXASSET
360
1FA
  0
DICTIONARY
  5
1F7
330
EC
100
AcDbDictionary
280
     1
281
     1
  3
ACAD_XREC_ROUNDTRIP
360
1A105
  3
FBXASSET
360
1F8
  0
DICTIONARY
  5
173
330
EE
100
AcDbDictionary
280
     1
281
     1
  3
ACAD_XREC_ROUNDTRIP
360
1A107
  3
BUMPTILE
360
175
  3
DIFFUSETILE
360
174
  3
FBXASSET
360
1FB
  3
OPACITYTILE
360
176
  3
REFLECTIONTILE
360
177
  0
DICTIONARY
  5
1A128
330
12E
100
AcDbDictionary
280
     1
281
     1
  3
ACAD_XREC_ROUNDTRIP
360
1A129
  0
DICTIONARY
  5
1A13A
330
21A
100
AcDbDictionary
280
     1
281
     1
  3
ACAD_XREC_ROUNDTRIP
360
1A13B
  0
DICTIONARY
  5
162
330
7F
100
AcDbDictionary
280
     1
281
     1
  3
ACAD_ROUNDTRIP_2008_TABLESTYLE_CELLSTYLEMAP
360
1A0FB
  3
ACAD_XREC_ROUNDTRIP
360
1A100
  0
DICTIONARY
  5
1A112
330
F5
100
AcDbDictionary
280
     1
281
     1
  3
ACAD_XREC_ROUNDTRIP
360
1A113
  0
DICTIONARY
  5
1A110
330
F4
100
AcDbDictionary
280
     1
281
     1
  3
ACAD_XREC_ROUNDTRIP
360
1A111
  0
DICTIONARY
  5
1A11E
330
FB
100
AcDbDictionary
280
     1
281
     1
  3
ACAD_XREC_ROUNDTRIP
360
1A11F
  0
DICTIONARY
  5
1A126
330
FF
100
AcDbDictionary
280
     1
281
     1
  3
ACAD_XREC_ROUNDTRIP
360
1A127
  0
DICTIONARY
  5
1A118
330
F8
100
AcDbDictionary
280
     1
281
     1
  3
ACAD_XREC_ROUNDTRIP
360
1A119
  0
DICTIONARY
  5
1A11C
330
FA
100
AcDbDictionary
280
     1
281
     1
  3
ACAD_XREC_ROUNDTRIP
360
1A11D
  0
DICTIONARY
  5
1A12E
330
1E6
100
AcDbDictionary
280
     1
281
     1
  3
ACAD_XREC_ROUNDTRIP
360
1A12F
  0
DICTIONARY
  5
1A124
330
FE
100
AcDbDictionary
280
     1
281
     1
  3
ACAD_XREC_ROUNDTRIP
360
1A125
  0
DICTIONARY
  5
1A108
330
F0
100
AcDbDictionary
280
     1
281
     1
  3
ACAD_XREC_ROUNDTRIP
360
1A109
  0
DICTIONARY
  5
1A10A
330
F1
100
AcDbDictionary
280
     1
281
     1
  3
ACAD_XREC_ROUNDTRIP
360
1A10B
  0
DICTIONARY
  5
1A10C
330
F2
100
AcDbDictionary
280
     1
281
     1
  3
ACAD_XREC_ROUNDTRIP
360
1A10D
  0
DICTIONARY
  5
1A10E
330
F3
100
AcDbDictionary
280
     1
281
     1
  3
ACAD_XREC_ROUNDTRIP
360
1A10F
  0
DICTIONARY
  5
1A116
330
F7
100
AcDbDictionary
280
     1
281
     1
  3
ACAD_XREC_ROUNDTRIP
360
1A117
  0
DICTIONARY
  5
1A12A
330
1E4
100
AcDbDictionary
280
     1
281
     1
  3
ACAD_XREC_ROUNDTRIP
360
1A12B
  0
DICTIONARY
  5
1A122
330
FD
100
AcDbDictionary
280
     1
281
     1
  3
ACAD_XREC_ROUNDTRIP
360
1A123
  0
DICTIONARY
  5
1A12C
330
1E5
100
AcDbDictionary
280
     1
281
     1
  3
ACAD_XREC_ROUNDTRIP
360
1A12D
  0
DICTIONARY
  5
1A11A
330
F9
100
AcDbDictionary
280
     1
281
     1
  3
ACAD_XREC_ROUNDTRIP
360
1A11B
  0
DICTIONARY
  5
1A138
330
1F3
100
AcDbDictionary
280
     1
281
     1
  3
ACAD_XREC_ROUNDTRIP
360
1A139
  0
DICTIONARY
  5
1A136
330
1F2
100
AcDbDictionary
280
     1
281
     1
  3
ACAD_XREC_ROUNDTRIP
360
1A137
  0
DICTIONARY
  5
1A130
330
1EF
100
AcDbDictionary
280
     1
281
     1
  3
ACAD_XREC_ROUNDTRIP
360
1A131
  0
DICTIONARY
  5
1A132
330
1F0
100
AcDbDictionary
280
     1
281
     1
  3
ACAD_XREC_ROUNDTRIP
360
1A133
  0
DICTIONARY
  5
1A120
330
FC
100
AcDbDictionary
280
     1
281
     1
  3
ACAD_XREC_ROUNDTRIP
360
1A121
  0
DICTIONARY
  5
1A114
330
F6
100
AcDbDictionary
280
     1
281
     1
  3
ACAD_XREC_ROUNDTRIP
360
1A115
  0
DICTIONARY
  5
1A134
330
1F1
100
AcDbDictionary
280
     1
281
     1
  3
ACAD_XREC_ROUNDTRIP
360
1A135
  0
XRECORD
  5
1A13D
102
{ACAD_REACTORS
330
1A13C
102
}
330
1A13C
100
AcDbXrecord
280
     1
102
DISPLAYNAME
  1
Metric50
102
FLAGS
 90
        0
  0
XRECORD
  5
1A102
102
{ACAD_REACTORS
330
1A101
102
}
330
1A101
100
AcDbXrecord
280
     1
102
SHADEPLOT
 70
     0
102
SHADEPLOTRESLEVEL
 70
     2
102
SHADEPLOTCUSTOMDPI
 70
   300
  0
XRECORD
  5
1A104
102
{ACAD_REACTORS
330
1A103
102
}
330
1A103
100
AcDbXrecord
280
     1
102
SHADEPLOT
 70
     0
102
SHADEPLOTRESLEVEL
 70
     2
102
SHADEPLOTCUSTOMDPI
 70
   300
  0
XRECORD
  5
1A0FF
102
{ACAD_REACTORS
330
1A0FE
102
}
330
1A0FE
100
AcDbXrecord
280
     1
102
SHADEPLOT
 70
     0
102
SHADEPLOTRESLEVEL
 70
     2
102
SHADEPLOTCUSTOMDPI
 70
   300
  0
XRECORD
  5
1A106
102
{ACAD_REACTORS
330
1F9
102
}
330
1F9
100
AcDbXrecord
280
     1
102
MATERIAL
148
0.0
149
0.0
149
0.0
 93
        0
 94
       63
282
     0
 72
     1
 77
     1
171
     1
175
     1
179
     1
273
     0
  0
XRECORD
  5
1FA
102
{ACAD_REACTORS
330
1F9
102
}
330
1F9
100
AcDbXrecord
280
     1
 70
     1
 90
429727718
  1
D62C5603-E3A1-4AEA-B7FB-FE5D8D0755AF
310
504B03040A0000080000CC70623B3DEE336E79000000790000001B0000006175746F6465736B2D64657369676E2D7061636B6167652E786D6C3C3F786D6C2076657273696F6E3D22312E302220656E636F64696E673D227574662D3822203F3E3C666F726D6174733E3C666F726D61743E687474703A2F2F736368656D612E
310
6175746F6465736B2E636F6D2F64657369676E2D7061636B6167652F323030393C2F666F726D61743E3C2F666F726D6174733E504B0304140006080800CC70623BD486FD9CA0000000F4000000130000005B436F6E74656E745F54797065735D2E786D6C7D8EC10E82300C865F65E91D8A1E8C310C0EEA1BF002731658846E
310
D98AC1B77784ABF1D8FE5FBFBF75BBCE937A534CCEB38643598122B6FEE978D0B0485F9C41B54DDD7D022595594E1A469170414C76A4D9A4D207E29CF43ECE46F218070CC6BECC4078ACAA135ACF422C856C0E68EA1BF5669944DDD7BCDE7B1F8E415D77AECB980613C2E4AC91FC167A2B244592486606FC29C8FD7F045B9A
310
EF7053A7E60B504B0304140006080800CC70623B853B8169EB0000007C01000008000000636F72652E786D6C8D90416EC3201045AF62CDB6C206821CC7C244919D9CA01740401C94182C03558F5F9C3852BBEB6A467FFE9B197D7EFC9E1EC5975982F5AE035262288C535E5B377690E21535501C055FBC8FBF6C503839990E
310
5619041F179FE64D52DE45E362569DD7661365082642A11EB9E920A89B99642953CC8E702F67A9EE7234257977194EC9EAE275C4EABCCF5EAD5940D4AC6F0E35A568B8F43562CD7046CD199FD07E60174276A7BE677B5EADB0E0D14EEFFB6A31321A0D82627C4084204C3F096B71DD52F6819B16635EADF63F509AF53FA164
310
5DDCD1EDDD17164090FCC8732078B56691CB33A85CD7DCC40F504B0304140006080800CC70623B55019EA25F0000007C00000007000000636E782E786D6C4DCB3B0E80201045D1AD90E915ED2CF8AC45050C11660C8261F98AB1B07AC9C97D42D718D865D3E909258CFD00CCE24AC6E326A164D74DC0B4128928FF32603847
310
2BA13128B1252AC747C6BAB984FC68F0B87FE8960A5C09FE86CFB69FBA01504B0304140006080800CC70623BDBABAAF470010000D40300000C0000006662782F636F72652E786D6CC553D16E823014FD95A6AF4B694182CC941A83FA05FB810A9511A125A5257EFE2E82712ECEB8A7F100CD39F7F69E734AF9FADC366850B6
310
AF8DCE7018308C942E4C59EB2AC3DE1D498AD15A706B8CFB56869196ADCAF00863C12B6B7C374385D14E6907A836A59A41D9F7CA615434B0C8705F7CAA5606D23BA8E84F41278B93AC54100640439DE0BDB320004D43C63716C7C399D30917DCFBBA9CD9BA8469F5B156168B24CED3F7248AC8769F27244EB73B92EED8862C
310
B7F13E0C179B3C8F979C8ECD82BBBABDAA2BAC924E9558448CBD9330242CFA08E3154B5651FCC6D215639C8EE5774DBE2B5F6CF2B5768B68963BB5F5588420E442FC700B1139D4CB01F450C1E918227C2E09DF070D8140C84E1E9AAB8F1340832A9CB13130A5F1376A908D57309505ECF2A0DF179C4E9D30F5B239B87E3823
310
7A79C6F31DE1A8A5AEC08474B03C7837EAE4938639B44E5932B833D2C6B6B279CDC613877FA26EE21F4A2A4C63EC7F29A2F301D1F9F7A0E37D145F504B0304140006080800CC70623B9C113CC27E0000009D0000000B0000006662782F636E782E786D6C4DCCDF0A83201C86E15B91DFB94BFB330DD428C8FB886521330DA7
310
6397BF1A1DECE883878F57749FCDA1B7892F1BBC047A23808C7F84D9FA55424E0BE6803A256208E9EF06C84F9B91703228B1C690F78B66B34CD9A5439DF5CF0BFBF65E35BCA1B8D6A5C6F540381E886698B5741C695F9503EBA150A2F8958E3DC3EA0B504B0304140006080800CC70623B7DF2F77C2A010000120200003100
310
00006662782F41393633353835312D344632462D344230382D423046372D3739314545314133324237412F636F72652E786D6C8D51DB8EC22014FC15C2939B0D2DB4B45643319AE817EC0F6041255A68B86CFCFC856D4D76DF7CE190393373060EDB3DC707F856CE6B6B7A480A0C81328395DA5C7B18C3057510EC3873D686
310
3F34088C18550F330C39BB3A1BA7051AAC09CA84841A2BD5020AEF55806078A44B0FFD7053A328440C89E1EFC52486BBB8AA8214A99D789CF9E05200300FC927E4FB4D5B375D43103D5527440FB843077C5AA3F5861C8F645F5787F59E95B390B318B55CE45AA638FAA2957BD7248B390B7A7CC51F9C124149C82B8C378810
310
84AB2F42B7B8DD56F413775B8C5999E9FF4471926F8AA236A1AE96B8B3CC434E5839373893369E1FAF30EA395917409EB7F26AF8801C171837A4A6AC9C89E9F9C9B1A58BA30FD6A5EF5DDDCF894B9AD9B6A59C957943A9FCAE2FD5BC4DFE03504B0304140006080800CC70623BAD7543B64E01000033030000300000006662
310
782F41393633353835312D344632462D344230382D423046372D3739314545314133324237412F636E782E786D6CD593CD6EC32010845F0571AD6CE3D48AD20813A9873E410FBD12D82434182C7EAAE6EDBB2424CD25871E7B41D6EC30B3FA84F9E67BB2E40B4234DE8DB46F1925E094D7C6ED479AD3AE5951B2113C789FEE
310
6C943839C1488B4C05DF079FE72A69D8C96C13AAD6B8631503449F83828872B949AC57D26200B826A308D316B4064D6E46FCDA41C05550DC9E483A00797BFD207EFB092A45DE9514C1BBD22178396BD39D891265658C238DEA00936C654E5E433CB65A26D9F6EDB5EBC14EBF49A45CB856E66048291F6939A9A81BB5C89177
310
38143CA680F4AA299D66A042CEB3354A2684DC9D8D178FE0D9B8B41CAAD720F880EE7EF93C0C18769E099ECC04D5A102C8049A8A05632F4DDF376CF1DE0F6BB65C2F8627B65A33C6BB62177CEBBDAD973006829F89F22E814B54F4BC2BE347F8AA8F681390B50FA73F804400B5F542E796F19FF974E7F78DB802FE05E20750
310
4B0304140006080800CC70623BE75B7789680500003C100000340000006662782F41393633353835312D344632462D344230382D423046372D3739314545314133324237412F6F626A656374732E786D6CAD575B8F9B3818FD2B887D06C22499CB8AA1CA655245D5B455A356FB305264C061D8018C6C3393D95FBFC7600890
310
A4CD5EF210B0B1BFEBF98E3F7B1FF6596ABC522E1296DF9BAE3D320D9A872C4AF2F8DE2CE5CEBA358D0FBEC719939D65A691938CDE9B6ADAF4BD98B3B2D05311DD91329583D9D5FC0F438434A7A611A644887B5384CF34233629258BA878B12322891DEFF6B66BD70BFB62634E8AE781D082709A4B588AF91C528CDA28B73F
310
1C998EEF39EABBEFA97FBD6A7C7E9553F9D3D79FE442923C3C523610337627CB87ABE99D359D4CC6D6E4FACAB5E6ABF9D2726FC6A3C5F56271377BB88362213924694B38DD99FE47C48627A1E7D49F5A8BB5E1A74C0A599ED3B0F21F1E56366B89112D681E218F0915D0D6F17AD41FBA2A369DCF6335D62ABBD39779D5DDD1
310
11D4D8DE3CBB96B2E04FB8202E41051754A1AA8E8F76B4C6DFE810B580B1547F4B84911149794252234D024EF8BBE963A95AE27B3D310A9D5C215C7960FAEE415ED75694C6AFB17BCACA5D99A60A9AA65F217B0BFC53292ACB92BF283FAD0D3621576592CB5BED907C2FA8E9DF794E35E97BEA31BED21FEB401ABB94C44839
310
DCACBF0E1C5DA8DA5B2F4DFFD32AD86F543D9E565E7056502E157C00AD2671CD534549AB752FCA9CDA00677A313F04E51B22FF19E57B300579E3C97EB29F682D92935CEC18CF901B7B54FD8C51F362B56FC72FE0B3C1EAE335EDCCBF5AEC39ADB17DC238973F804BA5E6F6BFE7AF1FB32E523BE9F3BD571418E3631DCA4D48
310
5250CF639223210A9446CA30052EDF057BD35F8329C1ECD84552BF0DC8D18BE7BCE23BFE6BD960AB4A7DE79923A103BEBD80F911CBAA2C60DB19B01CF164A5583B772EE6D3FFA56666CBCDA74DC97724A48F9A58967497E489C4D979006FD7A05E227A1EBDD0F737C623387A9C844D3709995625106D157315F8B8392CD4E0
310
A0B9A720C4BE9829CEF37EA1E13111214D53925356365ADA634861B52519DD27A00AEB808EAF0628E6F435519D446F45CF2C9CF5214F0A15B2F6D06B79DA3EE3CBF7F56780D2F4E7EF73A0F5E5B02A38D07DC852C6B7C1FBB6664213E0C39E3EBA7FF4E1AD23EA2829407C85E586727488B751B2DB9502BC7B228A3FD68B6E
310
A65A22397E690AA8D158D7E404EC8CDA235CC3B7D1898680131CEC2CDF2638C65196279577750F15884AEE19F94199155B92B13297978469D4F8D358DF0AEF7631E28DC8F0D9F437D5D39A83B2231A1D52D543813A824EF8D44BCFF2FA6A31BD1E8DAD87F1CCB526B3879935BF59CDADD5C37479BB1CDD4CA7B3556B516589
310
EF352754B706114D9C885EC9131DE6EFEB43D99AFE2391C2F958179413D7CFEF6B1B6DB1E7600F00DE6E5C67454A339A4BA2E0FBA85ED26F045D454F463DBFCE484C2F90F2E5E3666003662ED8F755951A7D1BECD5B30B550B2785C8E7320B7292A4838DDA71BBC863ED7613CAF659337A3354231D4FF4A182A54904C2898C
310
98B28C4AD0CE056CCF332A80986E571EE9DBC305BB5FEB7E509220A58D25CF042D712A806AC0AD0C657FDEF80D2D9CEAA2EE4D1C76F60BFE74219A06527D6F82DF6412526107381E55E353090704D085B52408A8913C4ED159D79BDA71BB4BC506F4831350EB6F975CD22D69BF7AC49B91A2C0A9DDA3D5CA36AD20FC478E37
310
E61844E2352865EBCB61A275A65283CAAA9DD27703B4102F5AF51EF5F573B75CBB5AD38BC845F7A49F82A0966A49C2E3EA5EA0ECD326CD965F1DB402C6FA8B51A4658C5C5E2EC9E214602E55810345408596591009A82E7E7FFACA19EEA299B14A0081A705CB3296EBC14CDF658DCD336EA6D1136881AAEB87B81AB9EE53D5
310
F5EB8BC8362082DA24122F98680A4E7930C01A0079749CEA14382A0783E5EBA5A10F8C098456A03D6A4AEB6BB881E2513747552A5DB22C7EDAF83BD5528081A365F7FF06504B0304140006080000CC70623B000000000000000000000000350000006662782F41393633353835312D344632462D344230382D423046372D37
310
39314545314133324237412F76657274696365732E62696E504B0304140006080800CC70623BF270F1330600000004000000360000006662782F41393633353835312D344632462D344230382D423046372D3739314545314133324237412F747269616E676C65732E62696E636660600000504B0304140006080000CC7062
310
3B000000000000000000000000370000006662782F41393633353835312D344632462D344230382D423046372D3739314545314133324237412F617474726962757465732E62696E504B0304140006080800CC70623B08DA0BD19000000041010000360000006662782F41393633353835312D344632462D344230382D4230
310
46372D3739314545314133324237412F6469726563746F72792E786D6C858F410AC3201045AF22B36F53E9A60B35CBEEBAE80D244E44489C6234F4F835464A48035D0DF398FF9F8AF63D0E6CC63039F212F8F9020C7D47C6792B21C5FE7403D62A1188E2E60C98D7234A5830286103A55745067B9D86B8A3CF9C7F90C11DE6
310
07FB144396D7B6A82D282E9A152AD114D5EF2CB866EEE831B8EEA07A7BB5A8D7D61A2BAAEB7FD5F70921FF497D00504B0304140006080800CC70623BEDD1DC58FD000000A00100003B0000006662782F41393633353835312D344632462D344230382D423046372D3739314545314133324237412F7265736F75726365732F
310
636F72652E786D6C8D504B6E833010BD0A9A6D65B00922041947112427E8052C33A156828DFCA97AFC9A40A576D7CDCCE87D344F8F9FBFE667F689CE6B6B3A6039850C8DB2A336530731DC4903D95970676DF82583CCC8193B5861107C72362E3BA4AC096842428D1D7107A5F7182053CF7474E0D507CE32973124857FE48B
310
540F3961CEF244279DE03EB81420DB9EAC1384436FA353E879B1B182C7A8C75DA3C7F453DF353A1075D537A7BA6464B8F535A99AE14A9A2BBD90E350DD183B5CFABE3AF262350B1EF4FC9351399401471025A527C218A1E53BAB5A5AB765F5469B96525EACF23FA6B88CFF34456DC2A1DCE36E360F82A5202F42F062ED2BAD
310
579969AFDD8A6F504B010214000A0000080000CC70623B3DEE336E79000000790000001B00000000000000000000000000000000006175746F6465736B2D64657369676E2D7061636B6167652E786D6C504B01021400140006080800CC70623BD486FD9CA0000000F40000001300000000000000000000000000B20000005B
310
436F6E74656E745F54797065735D2E786D6C504B01021400140006080800CC70623B853B8169EB0000007C010000080000000000000000000000000083010000636F72652E786D6C504B01021400140006080800CC70623B55019EA25F0000007C000000070000000000000000000000000094020000636E782E786D6C504B
310
01021400140006080800CC70623BDBABAAF470010000D40300000C00000000000000000000000000180300006662782F636F72652E786D6C504B01021400140006080800CC70623B9C113CC27E0000009D0000000B00000000000000000000000000B20400006662782F636E782E786D6C504B01021400140006080800CC70
310
623B7DF2F77C2A010000120200003100000000000000000000000000590500006662782F41393633353835312D344632462D344230382D423046372D3739314545314133324237412F636F72652E786D6C504B01021400140006080800CC70623BAD7543B64E010000330300003000000000000000000000000000D2060000
310
6662782F41393633353835312D344632462D344230382D423046372D3739314545314133324237412F636E782E786D6C504B01021400140006080800CC70623BE75B7789680500003C10000034000000000000000000000000006E0800006662782F41393633353835312D344632462D344230382D423046372D3739314545
310
314133324237412F6F626A656374732E786D6C504B01021400140006080000CC70623B0000000000000000000000003500000000000000000000000000280E00006662782F41393633353835312D344632462D344230382D423046372D3739314545314133324237412F76657274696365732E62696E504B01021400140006
310
080800CC70623BF270F133060000000400000036000000000000000000000000007B0E00006662782F41393633353835312D344632462D344230382D423046372D3739314545314133324237412F747269616E676C65732E62696E504B01021400140006080000CC70623B0000000000000000000000003700000000000000
310
000000000000D50E00006662782F41393633353835312D344632462D344230382D423046372D3739314545314133324237412F617474726962757465732E62696E504B01021400140006080800CC70623B08DA0BD1900000004101000036000000000000000000000000002A0F00006662782F41393633353835312D344632
310
462D344230382D423046372D3739314545314133324237412F6469726563746F72792E786D6C504B01021400140006080800CC70623BEDD1DC58FD000000A00100003B000000000000000000000000000E1000006662782F41393633353835312D344632462D344230382D423046372D3739314545314133324237412F7265
310
736F75726365732F636F72652E786D6C504B0506000000000E000E0080040000641100000000
  0
XRECORD
  5
1A105
102
{ACAD_REACTORS
330
1F7
102
}
330
1F7
100
AcDbXrecord
280
     1
102
MATERIAL
148
0.0
149
0.0
149
0.0
 93
        0
 94
       63
282
     0
 72
     1
 77
     1
171
     1
175
     1
179
     1
273
     0
  0
XRECORD
  5
1F8
102
{ACAD_REACTORS
330
1F7
102
}
330
1F7
100
AcDbXrecord
280
     1
 70
     1
 90
429727718
  1
30362254-06B7-45E0-A893-8CFA70E3D6BC
310
504B03040A0000080000CC70623B3DEE336E79000000790000001B0000006175746F6465736B2D64657369676E2D7061636B6167652E786D6C3C3F786D6C2076657273696F6E3D22312E302220656E636F64696E673D227574662D3822203F3E3C666F726D6174733E3C666F726D61743E687474703A2F2F736368656D612E
310
6175746F6465736B2E636F6D2F64657369676E2D7061636B6167652F323030393C2F666F726D61743E3C2F666F726D6174733E504B0304140006080800CC70623BD486FD9CA0000000F4000000130000005B436F6E74656E745F54797065735D2E786D6C7D8EC10E82300C865F65E91D8A1E8C310C0EEA1BF002731658846E
310
D98AC1B77784ABF1D8FE5FBFBF75BBCE937A534CCEB38643598122B6FEE978D0B0485F9C41B54DDD7D022595594E1A469170414C76A4D9A4D207E29CF43ECE46F218070CC6BECC4078ACAA135ACF422C856C0E68EA1BF5669944DDD7BCDE7B1F8E415D77AECB980613C2E4AC91FC167A2B244592486606FC29C8FD7F045B9A
310
EF7053A7E60B504B0304140006080800CC70623B1EC5D7A3EB0000007C01000008000000636F72652E786D6C8D90416EC3201045AF82665B6103C6756C6122AB4D4ED00B204C5C94182C03558F5F9C3852BBEB6A467FFE9B197D71FC9E6FE8CBACC17AD7032D0820E3B41FAD9B7A48F1820F808E52ACDEC75F36404ECDA687
310
4D0629A6D5A76597B477D1B89855E747B38B2A041301E95B6E7A08FAD3CCAA50296647B8168BD2573599823EBB0CA76447F43862C7BCCF5EAC59410E4DDD9C7973C2755553CCCFA4C603E3040F1565ED3B1FDE4E432BCA0D9622DAF9795FAF464533826484B498524CD807E51D79ED187F21878E10516EF63F505AC67F42C9
310
BA58B1FDDD071640D2FCC87D2045B96591CB3DA85CB7DCE40F504B0304140006080800CC70623B55019EA25F0000007C00000007000000636E782E786D6C4DCB3B0E80201045D1AD90E915ED2CF8AC45050C11660C8261F98AB1B07AC9C97D42D718D865D3E909258CFD00CCE24AC6E326A164D74DC0B4128928FF32603847
310
2BA13128B1252AC747C6BAB984FC68F0B87FE8960A5C09FE86CFB69FBA01504B0304140006080800CC70623B8C9102E971010000D40300000C0000006662782F636F72652E786D6CC5535B6E833010BC8AE5DF0A6C08340F1947A84D4ED00B38C6A128602363A31CBFCB234A53A551FA553EC09AD9F5CE8C31DB9E9B1AF5CA
310
7695D1198E428A91D2D214952E33ECDD315861B4E5CC1AE3BE9561A445A3323CC098B3D21ADFCE9034DA29ED00D5A6503328BA4E398C640D8B0C77F253352214DE4145770A5B214FA2546114020D759C75CE8200340D19DE981F0F6746269C33EFAB6266AB02A655C74A59CCF365BADC27CB5D902ED22848F6340DF238A141
310
BE88E2F57B92BFEDF23523433367AE6A2EEAA455C2A902F398D2751045018D3FA264435F3771F242571B4A1919CA6F9A7C5B3CD9E42BED16F12C776AEB308F40C848FC700B1139D4891EF410CEC810227CC6846F8386402064270EF5C5C709A05E49676C024C61FC95EA45ED154CA5211D1FF4FB8291A913A68E9B83EBBB33
310
E2A7673CDE118E5AE8124C0807CB8377834E366998436B950D7A7746DAD846D4CFD978E0F04FD455FC5D49D2D4C6FE9722321F10997F0F32DC47FE05504B0304140006080800CC70623BFFEA85907E0000009D0000000B0000006662782F636E782E786D6C4DCCD10A83201886E15B91FFDC95D95A811AB6F23E625948A6C3
310
E9D8E5AF46073BFAE0E1E365ED67B3E8ADC3CB78C7815C7240DA3DFC64DCC221C519D7805AC182F7F1EF06C88D9BE6703008B6049F9E274D7A1E938DBB5AE3D6131B2589BA0D3D965551E0B2EA732C9B9A624AAEB41E3A557677029960D9AFB4EF11165F504B0304140006080800CC70623B4FEEA4082C0100001202000031
310
0000006662782F39464131463745442D413632322D343644302D413938332D3331353338454246344243312F636F72652E786D6C8D515B6EC32010BC0AE2AB55850DD871ED0813254D72825EC00192A2C460F1A872FC42ED48ED5F7E00CDCECCCEB26C731F6FE05B39AFADE921293004CA082BB5B9F43086336A21D870E6AC
310
0D7F68109861543DCC30E4ECE26C9C164858139409093556AA051CBC570102714B8F1E7AF1A5C6A11862480C7F2DA6415C878B2A4891CA89C7990F2E050073937C42DE1DB7E4F87ED8A36D4329AA9B3D46DBAEAD504556557BD81DEBDD0761E52CE42C462D17B996298E3E6BE59E35C962CE821E1FF18553435012728A7187
310
0841987E927A8D9B35ADDF70BBC6989599FE4F1427F9A4286A132ABAC49D651EF234CD5CE04CDA78BA3DC2A8FB645D00B9DF8B57E215725C60BCA2A463E54C4CE327C7A65E1C7DB02E7DEFCBF594B864C5CA6CDBD49C957943E9FA5D5FBAF336F90F504B0304140006080800CC70623BAD7543B64E01000033030000300000
310
006662782F39464131463745442D413632322D343644302D413938332D3331353338454246344243312F636E782E786D6CD593CD6EC32010845F0571AD6CE3D48AD20813A9873E410FBD12D82434182C7EAAE6EDBB2424CD25871E7B41D6EC30B3FA84F9E67BB2E40B4234DE8DB46F1925E094D7C6ED479AD3AE5951B2113C
310
789FEE6C943839C1488B4C05DF079FE72A69D8C96C13AAD6B8631503449F83828872B949AC57D26200B826A308D316B4064D6E46FCDA41C05550DC9E483A00797BFD207EFB092A45DE9514C1BBD22178396BD39D891265658C238DEA00936C654E5E433CB65A26D9F6EDB5EBC14EBF49A45CB856E66048291F6939A9A81BB5
310
C8917738143CA680F4AA299D66A042CEB3354A2684DC9D8D178FE0D9B8B41CAAD720F880EE7EF93C0C18769E099ECC04D5A102C8049A8A05632F4DDF376CF1DE0F6BB65C2F8627B65A33C6BB62177CEBBDAD973006829F89F22E814B54F4BC2BE347F8AA8F681390B50FA73F804400B5F542E796F19FF974E7F78DB802FE05
310
E207504B0304140006080800CC70623B16AB87BA640500003C100000340000006662782F39464131463745442D413632322D343644302D413938332D3331353338454246344243312F6F626A656374732E786D6CAD575B6FA33818FD2B887DE6924B3BED8A326A92B68A663B534DD4D13E548A0C38942D60649B369D5FBFC7
310
600890A493BDE42160637FD7F31D7FF63E6FB3D478A55C242CBF3247B66B1A340F5994E4F19559CA8D75611A9F7D8F33263BCB4C232719BD32D5B4E97B316765A1A722BA21652A07B3B7B33F0D11D29C9A46981221AE4C113ED38CD8A4942CA2E2C58E882476BCD9DA23BB5ED8171B73523C0F841684D35CC252CCE79062D4
310
468DFA43D7747CCF51DF7D4FFDEB5593E3AB9CCA9FBEFE241792E4E19EB28198C968BAB8199F5D5A67D3E9C49A9E8F47D6EC76B6B0469F26EEFC7C3EBFBCBEB98462213924694B38DD98FE1D62C393D073EA4FADC5DAF04326852CCF6958F90F0F2B9BB5C48816348F90C7840A68EB78EDF68723159BCEE7891A6B95DDE9D3
310
BCEAEEE8086A6C6F9E5D4B59F0175C10A7A0820BAA5055C7473B5AE3CFDD452D602CD5DF12616444529E90D448938013FE6EFA58AA96F85E4F8C42275708571E98FE6827AF6B2B4AE3D7D83D64E5A64C53054DD3AF90BD06FEA9149565C94FCA0F6B834DC85599E4F2423B24DF0B6AFA979E534DFA9E7A4CC6FA631D486393
310
921829879BF5D781A373557BCB85E97FB90DB62B558F8795179C15944B051F40AB495CF35451D26A4727654E6D8033BD98EF82F21D91FF8AF2DD9982BCF1643BDD4EB516C9492E368C67C88DED563FC36D5EACF66DFF057C3658BDBFA69DF9578B3DA735B64F18C7F20770A9D45CFCF7FCF563D6456A277DBEF78A02637CA2
310
43B90A490AEAB94F72244481D24819A6C0E59B606BFA4B3025981DBB48EAB701D97BF19C577CC77F2D1B6C55A9EF3C732474C0B727303F625995056C3B02963D9EAC146BE78EC5FCEC7FA999EBC5EACBAAE41B12D27B4D2C0BBA49F244E2ECDC81B76B502F113D8F5EE8FB1BE3111CDD4FC2AA9B844CAB1288B68AB90A7CDC
310
1C166AB0D3DC5310625FCC14E779BFD0709F8890A629C9292B1B2DED31A4B0DA928CEE135085754027E3018A397D4D5427D15BD1330B677DC8934285AC3DF45A9EB68FF8F2B8FC0A509AFEECFD0FF2DE25CC6047F7214B195F07EFEB9A094D800F7BFAE8FED187B78EA8A3A400F115961BCAD1215E47C966530AF0EE8128FE
310
58CEBB996A8964FFA529A046635D9353B0336A8F700DDF46271A024E70B0B37C9DE01847591E54DED53D54202AB947E4076556AC49C6CA5C9E1226B7F1A7B1BE15DEED62C41B91E1B3E9AFAAA735036547343A925075041DF0A9979E893B391F8FCFA6967B3EFB644DCF6E5CEBFAE272625DCC6FAF3FB93793C5F90CE1EF57
310
407342756B10D1C489E8953CD1617E5CEECAD6F4EF8914CE5D5D504E5C3F1F9736DA62CFC11E00BCDDB8CC8A9466349744C1F75EBDA4DF09BA8A9E8C7A7E9991989E20E5DBDD6A6003664ED8F7A04A8DBE0DF6EAD9B9AA858342E47399053949D2C146EDB85DE4B176BB0965FBAC19BD19AA918E27FA50C1D22402E144464C
310
59462568E704B6E71915404CB72B8FF4EDE184DDAF753F284990D2C6926782963815403548A70C657FDEF80D2D9CEAA2AE4C1C76F60BFE74219A06527D6582DF6412526107381E55E353090704D085B52408D0933C4ED159D79BDA71BB4BC506F4831350EB6F979CD22D69BF7AC49B91A2C0A9DDA3D5CA36AD20FC478E37E6
310
1844E2352865EBCB6EA275A652E3836BE04EFB400BF1A2556F515F1FBB35B2AB35BD889C744FFA1004B5544B121E57F70215746DD2F5E2C1412B602CBF19455AC6C8E5E9922C4E01E65215385004546899059180EAFCF7A707CE7017CD8CDB0410789AB32C63B91E5CEBBBACB17AC6CD347A022D5075FD106377347AAABA7E
310
7D11590744509B44E205134DC1290F06580320F78E537D3D73540E06CB970B431F185308AD40BBD794D6D77003C5A36E8EAA54BA64597CD8F83BD552A080A365F7FF06504B0304140006080000CC70623B000000000000000000000000350000006662782F39464131463745442D413632322D343644302D413938332D3331
310
353338454246344243312F76657274696365732E62696E504B0304140006080800CC70623BF270F1330600000004000000360000006662782F39464131463745442D413632322D343644302D413938332D3331353338454246344243312F747269616E676C65732E62696E636660600000504B0304140006080000CC70623B
310
000000000000000000000000370000006662782F39464131463745442D413632322D343644302D413938332D3331353338454246344243312F617474726962757465732E62696E504B0304140006080800CC70623B08DA0BD19000000041010000360000006662782F39464131463745442D413632322D343644302D413938
310
332D3331353338454246344243312F6469726563746F72792E786D6C858F410AC3201045AF22B36F53E9A60B35CBEEBAE80D244E44489C6234F4F835464A48035D0DF398FF9F8AF63D0E6CC63039F212F8F9020C7D47C6792B21C5FE7403D62A1188E2E60C98D7234A5830286103A55745067B9D86B8A3CF9C7F90C11DE607
310
FB144396D7B6A82D282E9A152AD114D5EF2CB866EEE831B8EEA07A7BB5A8D7D61A2BAAEB7FD5F70921FF497D00504B0304140006080800CC70623B0D6EF93BFE000000A00100003B0000006662782F39464131463745442D413632322D343644302D413938332D3331353338454246344243312F7265736F75726365732F63
310
6F72652E786D6C8D50596E833010BD0A9ADFCA60B334011947A8694ED00B586642AC041B79A97AFC9A40A5F6AF3F33A3B7689E1E3F7DCD8FEC139DD7D6F4C0720A191A65476DA61E62B892236427C19DB5E1970C322367EC618541F0C9D9B8EC90B226A009093576C41D94DE63804C3DD2D18357379C652E63480A7FCF17A9
310
EE72C29CE5894E3AC17D702940B63D59270887DE46A7D0F36263058F518FBB468FE9A7BE6A7420864373B8D4873369AA8691FA421B3294352543C5CAF65C0F6FEF43CB8BD52C78D0F34F46E550061C419494B6843142CB0F5677F4B52BEB177AEC28E5C52AFF638ACBF84F53D42654E51E77B379102C05791282176B5F693D
310
CB4C7BED567C03504B010214000A0000080000CC70623B3DEE336E79000000790000001B00000000000000000000000000000000006175746F6465736B2D64657369676E2D7061636B6167652E786D6C504B01021400140006080800CC70623BD486FD9CA0000000F40000001300000000000000000000000000B20000005B
310
436F6E74656E745F54797065735D2E786D6C504B01021400140006080800CC70623B1EC5D7A3EB0000007C010000080000000000000000000000000083010000636F72652E786D6C504B01021400140006080800CC70623B55019EA25F0000007C000000070000000000000000000000000094020000636E782E786D6C504B
310
01021400140006080800CC70623B8C9102E971010000D40300000C00000000000000000000000000180300006662782F636F72652E786D6C504B01021400140006080800CC70623BFFEA85907E0000009D0000000B00000000000000000000000000B30400006662782F636E782E786D6C504B01021400140006080800CC70
310
623B4FEEA4082C0100001202000031000000000000000000000000005A0500006662782F39464131463745442D413632322D343644302D413938332D3331353338454246344243312F636F72652E786D6C504B01021400140006080800CC70623BAD7543B64E010000330300003000000000000000000000000000D5060000
310
6662782F39464131463745442D413632322D343644302D413938332D3331353338454246344243312F636E782E786D6C504B01021400140006080800CC70623B16AB87BA640500003C1000003400000000000000000000000000710800006662782F39464131463745442D413632322D343644302D413938332D3331353338
310
454246344243312F6F626A656374732E786D6C504B01021400140006080000CC70623B0000000000000000000000003500000000000000000000000000270E00006662782F39464131463745442D413632322D343644302D413938332D3331353338454246344243312F76657274696365732E62696E504B01021400140006
310
080800CC70623BF270F133060000000400000036000000000000000000000000007A0E00006662782F39464131463745442D413632322D343644302D413938332D3331353338454246344243312F747269616E676C65732E62696E504B01021400140006080000CC70623B0000000000000000000000003700000000000000
310
000000000000D40E00006662782F39464131463745442D413632322D343644302D413938332D3331353338454246344243312F617474726962757465732E62696E504B01021400140006080800CC70623B08DA0BD190000000410100003600000000000000000000000000290F00006662782F39464131463745442D413632
310
322D343644302D413938332D3331353338454246344243312F6469726563746F72792E786D6C504B01021400140006080800CC70623B0D6EF93BFE000000A00100003B000000000000000000000000000D1000006662782F39464131463745442D413632322D343644302D413938332D3331353338454246344243312F7265
310
736F75726365732F636F72652E786D6C504B0506000000000E000E0080040000641100000000
  0
XRECORD
  5
1A107
102
{ACAD_REACTORS
330
173
102
}
330
173
100
AcDbXrecord
280
     1
102
MATERIAL
148
0.0
149
0.0
149
0.0
 93
        0
 94
       63
282
     0
 72
     1
 77
     1
171
     1
175
     1
179
     1
273
     0
  0
XRECORD
  5
175
102
{ACAD_REACTORS
330
173
102
}
330
173
100
AcDbXrecord
280
     1
270
     1
271
     1
  0
XRECORD
  5
174
102
{ACAD_REACTORS
330
173
102
}
330
173
100
AcDbXrecord
280
     1
270
     1
271
     1
  0
XRECORD
  5
1FB
102
{ACAD_REACTORS
330
173
102
}
330
173
100
AcDbXrecord
280
     1
 70
     0
 90
1673772943
  1
ECE7A1D2-D628-4531-984C-D00F80459256
310
504B03040A0000080000CC70623B3DEE336E79000000790000001B0000006175746F6465736B2D64657369676E2D7061636B6167652E786D6C3C3F786D6C2076657273696F6E3D22312E302220656E636F64696E673D227574662D3822203F3E3C666F726D6174733E3C666F726D61743E687474703A2F2F736368656D612E
310
6175746F6465736B2E636F6D2F64657369676E2D7061636B6167652F323030393C2F666F726D61743E3C2F666F726D6174733E504B0304140006080800CC70623BD486FD9CA0000000F4000000130000005B436F6E74656E745F54797065735D2E786D6C7D8EC10E82300C865F65E91D8A1E8C310C0EEA1BF002731658846E
310
D98AC1B77784ABF1D8FE5FBFBF75BBCE937A534CCEB38643598122B6FEE978D0B0485F9C41B54DDD7D022595594E1A469170414C76A4D9A4D207E29CF43ECE46F218070CC6BECC4078ACAA135ACF422C856C0E68EA1BF5669944DDD7BCDE7B1F8E415D77AECB980613C2E4AC91FC167A2B244592486606FC29C8FD7F045B9A
310
EF7053A7E60B504B0304140006080800CC70623BD9DDAED0EC0000007C01000008000000636F72652E786D6C8D90416EC3201045AF82665B61836D9CD8C2444DD39CA01740405C94182C03558F5F9C3852BBEB6A467FFE9B197D7EF89E6EE8CB2CC17A37002D0820E394D7D68D03A478C17B4007C117EFE32F1B20272733C0
310
2A83E0E3E2D3BC49CABB685CCCAAF3DA6CA20CC14440EA969B0182FA34932C648AD911AEC52CD5558EA6A0CF2EC329598D1E47ACCEFBECC59A050463A7EA5833865FEBDD0E37353BE3EE8DBDE3F6786A48D375FBF6CC78B9C282473B3DEFABC5C86834888A900E538A49F5419B9EB47DD5BC907D4F082F57FB1F28CDFA9F50
310
B22ED6D5F6EE030B20687EE43E10BC5CB3C8E51E54AE6B6EE207504B0304140006080800CC70623B55019EA25F0000007C00000007000000636E782E786D6C4DCB3B0E80201045D1AD90E915ED2CF8AC45050C11660C8261F98AB1B07AC9C97D42D718D865D3E909258CFD00CCE24AC6E326A164D74DC0B4128928FF326038
310
472BA13128B1252AC747C6BAB984FC68F0B87FE8960A5C09FE86CFB69FBA01504B0304140006080800CC70623BA24EB22D72010000D40300000C0000006662782F636F72652E786D6CC5535B6E833010BC8AE5DF0A6C5E49888CA3A6694ED00B38E05014B091B1518EDFE511A5A9D228FD2A1F60CDEC7A67C6986DCE4D8D7A
310
69BA4AAB0C073EC548AA5C17952A33ECECD15B61B4E1CC686DBF9561A44423333CC098B3D268D7CE50AE9595CA02AA74216750749DB418E5352C32DCE59FB211BE70162ABA93DF8AFC244AE9073ED050C759670D0840D390E18DF9F1706664C23973AE2A66B62A605A75ACA4C13C4976E1364A12EF355A2EBD384AF65EFA96
310
BC7B8BED2EA6719AAE16FB8491A199335B351775B991C2CA02F390D2D40B028F861F41BCA68B7518BFD0D59A524686F29B26D7164F36B94AD9289CE54E6D1DE6010819891F6E21228B3AD1831EC219194284CF98F06DD01008846CC5A1BEF83801D4CBDC6A1303536877A57A513B0953A94FC707FDBE6064EA84A9E3E6E0FA
310
EE8CF0E9198F7784A316AA0413C2C2F2E0ECA0934D1AE6D05A69BCDE9E91D2A611F573361E38FC1375157F5752AE6B6DFE4B11990F88CCBF0719EE23FF02504B0304140006080800CC70623B408A7D3B7C0000009D0000000B0000006662782F636E782E786D6C4DCCD10A83201886E15B91FFDC552A92A0064DBC8F581632
310
D3703A76F9ABD1C18E3E78F878E5F0D9027ABBFCF2292AE86E2D20171F69F6715550CB827B40839639A5F2770314A7CD293819B45C73AAFB45B35BA61ACAA1C1C7E7855C58C15BC331339661262CC762340413D68D77DA5B42298546CBE6573AF60CEB2F504B0304140006080800CC70623B449FB9BD290100001202000031
310
0000006662782F36394639363044362D344446342D343946362D394244322D3234314243333846323333332F636F72652E786D6C8D515B6EC32010BC0AE22B55850D98B871848994463E412FE002495162B07854397EA176A4F62F3F2C9A9D991D587EB84F37F0AD7D30CEF6905418026DA553C65E7A98E219ED203808EE9D
310
8B7F6810D871D23D2C3014FCE25D9A57483A1BB58D19B54EE9151C43D0110279CB971E06F9A5A7B11A53CC8C70ADE6515EC78BAE4895DB992778883E0700CB907242D17643D7E2538BD869608875438BBAE38922CAC8F1BDD90DB4691A5E2F42C153326A951B95E398B3D1FE599322163C9AE9115F7A3D46ADA0A018778810
310
84E907617BDCEE297BC5BB3DC6BC2EF47FA234AB2745C9D8D8D035EE220B50105E2F0DC1954B9FB747187D9F9D8FA0CCDB042D5FA0C015C65B42DF78BD10F3F3B363CB56C7109DCFDFBBB97E662ED92EB62D13BC2E1BCAE5777DB9966D8A1F504B0304140006080800CC70623BAD7543B64E01000033030000300000006662
310
782F36394639363044362D344446342D343946362D394244322D3234314243333846323333332F636E782E786D6CD593CD6EC32010845F0571AD6CE3D48AD20813A9873E410FBD12D82434182C7EAAE6EDBB2424CD25871E7B41D6EC30B3FA84F9E67BB2E40B4234DE8DB46F1925E094D7C6ED479AD3AE5951B2113C789FEE
310
6C943839C1488B4C05DF079FE72A69D8C96C13AAD6B8631503449F83828872B949AC57D26200B826A308D316B4064D6E46FCDA41C05550DC9E483A00797BFD207EFB092A45DE9514C1BBD22178396BD39D891265658C238DEA00936C654E5E433CB65A26D9F6EDB5EBC14EBF49A45CB856E66048291F6939A9A81BB5C89177
310
38143CA680F4AA299D66A042CEB3354A2684DC9D8D178FE0D9B8B41CAAD720F880EE7EF93C0C18769E099ECC04D5A102C8049A8A05632F4DDF376CF1DE0F6BB65C2F8627B65A33C6BB62177CEBBDAD973006829F89F22E814B54F4BC2BE347F8AA8F681390B50FA73F804400B5F542E796F19FF974E7F78DB802FE05E20750
310
4B0304140006080800CC70623B8D05915C650500003B100000340000006662782F36394639363044362D344446342D343946362D394244322D3234314243333846323333332F6F626A656374732E786D6CAD575B6FA33814FE2B887D06429276DA1565D4266D158D3A339A6846FB502932E050B66023DB74D2FDF5FB190C01
310
9276B2973C046C8ECFF53B17071F77456EBD502133CEAE6CDF9DD81665314F32965ED995DA3A17B6F5310C04E7AA47665B8C14F4CAD6DB7618A48257A5D94AE89654B91AEDDEDDFC61C998326A5B714EA4BCB265FC440BE2924AF184CA6737218AB8E976E7FA6E4338649B0A523E8D98964450A6A029F619B8588D52FE7039
310
B1BD30F0F4F730D0FF866AF6369557DB33949F31A9088B0F848DD8CCFCF9F2767A76E99CCDE733677E3EF59D9BBB9BA5E37F984D16E78BC5E5F5ED25044B25C0C96822E8D60EEFE11B91C581D77CEA34368A1F5329E68CD1B8B61F16D63A1B8E092D294B10C78C4A48EB593D192E7DED9BDEE7995E1B91FDEDD3ACEA9FE831
310
6A756F9F7D4D79F4274C90A7A04248AA51D5F8C718DAE06FB2F75AC4796EBE65D22A88A22223B995679120E2D50E41AA49C260C046A35368846B0BECD0DFF3EBEB8AD4F835768F69B9ADF25C43D30E6B646F807FAA64AD59F61715C7A54127C4AACA98BA3006A9D792DAE165E0D59B61A01FB3A9F9D838D2DAE62445C86166
310
F37564E842E7DE6A69879FEEA2DD5AE7E371E1A5E025154AC307D06A03D73EB5978C58FFA4C8E9033066E0F3BD53BEC1F39F91BE7B55103791EDE6BBB991A2046172CB4581D8B893FA674DDA17A77B3B7C413D1B511FD2743BFF8A38F03A658705E3ADF8015C3A3417FF3D7E439FF591DA0B5F18BC20C1B8981957AE6392A3
310
F43C640C01D1A0B4728E2DD4F26DB4B3C3152A252A3B4E913CEC1C72F012782FF88EFF8637AA552DBEF76408E8A8DE9E50F9E1CB3A2DA0DB1B6039A893B56063DC5B3E3FFB5F72E67AB9FEB4AEC496C4F4C1149625DD662C53E89D7BF0F6151A046260D1337DFDC94502430F83B0EE07A130A224BCAD7DAE1D9FB6CD422FF6
310
920702629C4BB9AE79C12F243C6432A6794E18E5552BA56B431AAB5D91317302B2B071E86C3A42B1A02F999E24061403B5D0EB639195DA655DD3EBEAB4FB862DDF579F014AD0E73C22F99E28DA57FB98E75C6CA2D74D53086D600F4786E0FE3144B771A8A7B900F03594DB8A633CBC49B2EDB69228BB479CF863B5E807AAAB
310
23872F6DFEB4129B949CA33823F58830E86D65621E10047D9DB34D862E8EAC3C2ABC2F7B2C40D67CDFE01F5545B92105AF983AC54D93D69E56FB8E797F88913F898A9FEC705D3F9D1B54EC8426FB500D40A03BD0119B06E1B95DDC7EB8F6975367793EBD70E66733DFB9BC982F9CE564727731999F5D4ECFCE3B8D6A4DC2A0
310
6D50FD148437D110834A64C6CDDF57FBACB5C307A2A477DFE4939736CFEF2B175371E0E10CF0DD1D5C15654E0BCA14D1E87DD02FF93782A162C0A3D95F1524A52770F972BF1EE9809D13CE7DD599467F8ECE9ADD85CE85A34CD45355448C64F9E8A031DC2D596ACC6E5DD93D9B82DE2EF5CAF81363A8E47996A0DE24564A79
310
4115AACE09C55E14540231FDA13C319787134EBF34E3A022514E5B4D9E0826E25C02D5805B15ABE1BEF51B26383D445DD9E875EE33FE4C22DA16427D65A3BCA92CA6D28DD01DF5DC53330704308475351050232CCD31583787BA75774AFB06E5070DD0C8EF484E19968C5D83BA5B90B244D31E54D55A372320FE4786B7EA58
310
44E135AA5467CB7EA333A61683CC6A8C3257034C10CF46F40EF9F5BE59BE5BD30C3C72D235E95D10345C1D45445A5F0BB47E46A5EBE5570F9380B5FA629579952296A773720405982B9DE04011506178964401AA8BDF1FBF0A8EAB6861DD6580C0E38217056766716DAEB2D6FA0917D3E4116581EADB879C4E7CFFB11EFACD
310
3D641311495D92C8676CB409A72D18610D803CE8A626049E8EC1887CB5B44CC39883690DDA8399B4B9855B481E7D71D4A9D22F96E5BB73BF5793020C02137BF837504B0304140006080000CC70623B000000000000000000000000350000006662782F36394639363044362D344446342D343946362D394244322D32343142
310
43333846323333332F76657274696365732E62696E504B0304140006080800CC70623BF270F1330600000004000000360000006662782F36394639363044362D344446342D343946362D394244322D3234314243333846323333332F747269616E676C65732E62696E636660600000504B0304140006080000CC70623B0000
310
00000000000000000000370000006662782F36394639363044362D344446342D343946362D394244322D3234314243333846323333332F617474726962757465732E62696E504B0304140006080800CC70623B08DA0BD19000000041010000360000006662782F36394639363044362D344446342D343946362D394244322D
310
3234314243333846323333332F6469726563746F72792E786D6C858F410AC3201045AF22B36F53E9A60B35CBEEBAE80D244E44489C6234F4F835464A48035D0DF398FF9F8AF63D0E6CC63039F212F8F9020C7D47C6792B21C5FE7403D62A1188E2E60C98D7234A5830286103A55745067B9D86B8A3CF9C7F90C11DE607FB14
310
4396D7B6A82D282E9A152AD114D5EF2CB866EEE831B8EEA07A7BB5A8D7D61A2BAAEB7FD5F70921FF497D00504B0304140006080800CC70623BCA768048FE000000A00100003B0000006662782F36394639363044362D344446342D343946362D394244322D3234314243333846323333332F7265736F75726365732F636F72
310
652E786D6C8D50596E833010BD0A9ADFCA60D600328E9AA639412F609909B1126CE4A5EAF16B0295DABFFECC8CDEA2797AECF8353F924FB44E193D409E5248504B332A3D0D10FC95B4901C39B3C6F85F3248B49871801506CE266BC2B243D2688FDA47549B11775038871E12F988C7004EDE7016A9083E2ADC3D5D84BC8B09
310
D33C8D74D471E6BC8D0192EDC93A815B742658898E651BCB59086ADC356A8C3FD555A1055ED7E7E254D615792D0F075295F585746FF53B694EE78A565DD736979A65AB9933AFE69F8CD2A2F038022F28ED489E135A7CE4554F9BBEA85E68DB53CAB255FEC71496F19FA6A0B42F8B3DEE6673C0F318E4497096AD7DC5F52C33
310
EEB55BFE0D504B010214000A0000080000CC70623B3DEE336E79000000790000001B00000000000000000000000000000000006175746F6465736B2D64657369676E2D7061636B6167652E786D6C504B01021400140006080800CC70623BD486FD9CA0000000F40000001300000000000000000000000000B20000005B436F
310
6E74656E745F54797065735D2E786D6C504B01021400140006080800CC70623BD9DDAED0EC0000007C010000080000000000000000000000000083010000636F72652E786D6C504B01021400140006080800CC70623B55019EA25F0000007C000000070000000000000000000000000095020000636E782E786D6C504B0102
310
1400140006080800CC70623BA24EB22D72010000D40300000C00000000000000000000000000190300006662782F636F72652E786D6C504B01021400140006080800CC70623B408A7D3B7C0000009D0000000B00000000000000000000000000B50400006662782F636E782E786D6C504B01021400140006080800CC70623B
310
449FB9BD290100001202000031000000000000000000000000005A0500006662782F36394639363044362D344446342D343946362D394244322D3234314243333846323333332F636F72652E786D6C504B01021400140006080800CC70623BAD7543B64E010000330300003000000000000000000000000000D20600006662
310
782F36394639363044362D344446342D343946362D394244322D3234314243333846323333332F636E782E786D6C504B01021400140006080800CC70623B8D05915C650500003B10000034000000000000000000000000006E0800006662782F36394639363044362D344446342D343946362D394244322D32343142433338
310
46323333332F6F626A656374732E786D6C504B01021400140006080000CC70623B0000000000000000000000003500000000000000000000000000250E00006662782F36394639363044362D344446342D343946362D394244322D3234314243333846323333332F76657274696365732E62696E504B010214001400060808
310
00CC70623BF270F13306000000040000003600000000000000000000000000780E00006662782F36394639363044362D344446342D343946362D394244322D3234314243333846323333332F747269616E676C65732E62696E504B01021400140006080000CC70623B00000000000000000000000037000000000000000000
310
00000000D20E00006662782F36394639363044362D344446342D343946362D394244322D3234314243333846323333332F617474726962757465732E62696E504B01021400140006080800CC70623B08DA0BD190000000410100003600000000000000000000000000270F00006662782F36394639363044362D344446342D
310
343946362D394244322D3234314243333846323333332F6469726563746F72792E786D6C504B01021400140006080800CC70623BCA768048FE000000A00100003B000000000000000000000000000B1000006662782F36394639363044362D344446342D343946362D394244322D3234314243333846323333332F7265736F
310
75726365732F636F72652E786D6C504B0506000000000E000E0080040000621100000000
  0
XRECORD
  5
176
102
{ACAD_REACTORS
330
173
102
}
330
173
100
AcDbXrecord
280
     1
270
     1
271
     1
  0
XRECORD
  5
177
102
{ACAD_REACTORS
330
173
102
}
330
173
100
AcDbXrecord
280
     1
270
     1
271
     1
  0
XRECORD
  5
1A129
102
{ACAD_REACTORS
330
1A128
102
}
330
1A128
100
AcDbXrecord
280
     1
102
ACAD_ROUNDTRIP_2012_MLEADER_STYLE
298
     1
  0
XRECORD
  5
1A13B
102
{ACAD_REACTORS
330
1A13A
102
}
330
1A13A
100
AcDbXrecord
280
     1
102
DISPLAYNAME
  1
Metric50
102
FLAGS
 90
        0
  0
CELLSTYLEMAP
  5
1A0FB
102
{ACAD_REACTORS
330
162
102
}
330
162
100
AcDbCellStyleMap
 90
        3
300
CELLSTYLE
  1
TABLEFORMAT_BEGIN
 90
        5
170
     1
 91
        0
 92
    32768
 62
   257
 93
        1
300
CONTENTFORMAT
  1
CONTENTFORMAT_BEGIN
 90
        0
 91
        0
 92
      512
 93
        0
300

 40
0.0
140
1.0
 94
        5
 62
     0
340
11
144
6.0
309
CONTENTFORMAT_END
171
     1
301
MARGIN
  1
CELLMARGIN_BEGIN
 40
1.5
 40
1.5
 40
1.5
 40
1.5
 40
4.5
 40
4.5
309
CELLMARGIN_END
 94
        6
 95
        1
302
GRIDFORMAT
  1
GRIDFORMAT_BEGIN
 90
        0
 91
        1
 62
     0
 92
       -2
340
14
 93
        0
 40
1.125
309
GRIDFORMAT_END
 95
        2
302
GRIDFORMAT
  1
GRIDFORMAT_BEGIN
 90
        0
 91
        1
 62
     0
 92
       -2
340
14
 93
        0
 40
1.125
309
GRIDFORMAT_END
 95
        4
302
GRIDFORMAT
  1
GRIDFORMAT_BEGIN
 90
        0
 91
        1
 62
     0
 92
       -2
340
14
 93
        0
 40
1.125
309
GRIDFORMAT_END
 95
        8
302
GRIDFORMAT
  1
GRIDFORMAT_BEGIN
 90
        0
 91
        1
 62
     0
 92
       -2
340
14
 93
        0
 40
1.125
309
GRIDFORMAT_END
 95
       16
302
GRIDFORMAT
  1
GRIDFORMAT_BEGIN
 90
        0
 91
        1
 62
     0
 92
       -2
340
14
 93
        0
 40
1.125
309
GRIDFORMAT_END
 95
       32
302
GRIDFORMAT
  1
GRIDFORMAT_BEGIN
 90
        0
 91
        1
 62
     0
 92
       -2
340
14
 93
        0
 40
1.125
309
GRIDFORMAT_END
309
TABLEFORMAT_END
  1
CELLSTYLE_BEGIN
 90
        1
 91
        1
300
_TITLE
309
CELLSTYLE_END
300
CELLSTYLE
  1
TABLEFORMAT_BEGIN
 90
        5
170
     1
 91
        0
 92
        0
 62
   257
 93
        1
300
CONTENTFORMAT
  1
CONTENTFORMAT_BEGIN
 90
        0
 91
        0
 92
      512
 93
        0
300

 40
0.0
140
1.0
 94
        5
 62
     0
340
11
144
4.5
309
CONTENTFORMAT_END
171
     1
301
MARGIN
  1
CELLMARGIN_BEGIN
 40
1.5
 40
1.5
 40
1.5
 40
1.5
 40
4.5
 40
4.5
309
CELLMARGIN_END
 94
        6
 95
        1
302
GRIDFORMAT
  1
GRIDFORMAT_BEGIN
 90
        0
 91
        1
 62
     0
 92
       -2
340
14
 93
        0
 40
1.125
309
GRIDFORMAT_END
 95
        2
302
GRIDFORMAT
  1
GRIDFORMAT_BEGIN
 90
        0
 91
        1
 62
     0
 92
       -2
340
14
 93
        0
 40
1.125
309
GRIDFORMAT_END
 95
        4
302
GRIDFORMAT
  1
GRIDFORMAT_BEGIN
 90
        0
 91
        1
 62
     0
 92
       -2
340
14
 93
        0
 40
1.125
309
GRIDFORMAT_END
 95
        8
302
GRIDFORMAT
  1
GRIDFORMAT_BEGIN
 90
        0
 91
        1
 62
     0
 92
       -2
340
14
 93
        0
 40
1.125
309
GRIDFORMAT_END
 95
       16
302
GRIDFORMAT
  1
GRIDFORMAT_BEGIN
 90
        0
 91
        1
 62
     0
 92
       -2
340
14
 93
        0
 40
1.125
309
GRIDFORMAT_END
 95
       32
302
GRIDFORMAT
  1
GRIDFORMAT_BEGIN
 90
        0
 91
        1
 62
     0
 92
       -2
340
14
 93
        0
 40
1.125
309
GRIDFORMAT_END
309
TABLEFORMAT_END
  1
CELLSTYLE_BEGIN
 90
        2
 91
        1
300
_HEADER
309
CELLSTYLE_END
300
CELLSTYLE
  1
TABLEFORMAT_BEGIN
 90
        5
170
     1
 91
        0
 92
        0
 62
   257
 93
        1
300
CONTENTFORMAT
  1
CONTENTFORMAT_BEGIN
 90
        0
 91
        0
 92
      512
 93
        0
300

 40
0.0
140
1.0
 94
        2
 62
     0
340
11
144
4.5
309
CONTENTFORMAT_END
171
     1
301
MARGIN
  1
CELLMARGIN_BEGIN
 40
1.5
 40
1.5
 40
1.5
 40
1.5
 40
4.5
 40
4.5
309
CELLMARGIN_END
 94
        6
 95
        1
302
GRIDFORMAT
  1
GRIDFORMAT_BEGIN
 90
        0
 91
        1
 62
     0
 92
       -2
340
14
 93
        0
 40
1.125
309
GRIDFORMAT_END
 95
        2
302
GRIDFORMAT
  1
GRIDFORMAT_BEGIN
 90
        0
 91
        1
 62
     0
 92
       -2
340
14
 93
        0
 40
1.125
309
GRIDFORMAT_END
 95
        4
302
GRIDFORMAT
  1
GRIDFORMAT_BEGIN
 90
        0
 91
        1
 62
     0
 92
       -2
340
14
 93
        0
 40
1.125
309
GRIDFORMAT_END
 95
        8
302
GRIDFORMAT
  1
GRIDFORMAT_BEGIN
 90
        0
 91
        1
 62
     0
 92
       -2
340
14
 93
        0
 40
1.125
309
GRIDFORMAT_END
 95
       16
302
GRIDFORMAT
  1
GRIDFORMAT_BEGIN
 90
        0
 91
        1
 62
     0
 92
       -2
340
14
 93
        0
 40
1.125
309
GRIDFORMAT_END
 95
       32
302
GRIDFORMAT
  1
GRIDFORMAT_BEGIN
 90
        0
 91
        1
 62
     0
 92
       -2
340
14
 93
        0
 40
1.125
309
GRIDFORMAT_END
309
TABLEFORMAT_END
  1
CELLSTYLE_BEGIN
 90
        3
 91
        2
300
_DATA
309
CELLSTYLE_END
  0
XRECORD
  5
1A100
102
{ACAD_REACTORS
330
162
102
}
330
162
100
AcDbXrecord
280
     1
102
ACAD_ROUNDTRIP_PRE2007_TABLESTYLE
 90
      512
 91
        0
  1

 92
      512
 93
        0
  2

 94
      512
 95
        0
  3

  0
XRECORD
  5
1A113
102
{ACAD_REACTORS
330
1A112
102
}
330
1A112
100
AcDbXrecord
280
     1
102
RTVSPost2010Prop28
280
     1
102
RTVSPost2010PropOp28
 70
     1
102
RTVSPost2010Prop29
280
     1
102
RTVSPost2010PropOp29
 70
     1
102
RTVSPost2010Prop30
280
     0
102
RTVSPost2010PropOp30
 70
     1
102
RTVSPost2010Prop31
280
     0
102
RTVSPost2010PropOp31
 70
     1
102
RTVSPost2010Prop32
280
     0
102
RTVSPost2010PropOp32
 70
     1
102
RTVSPost2010Prop33
280
     0
102
RTVSPost2010PropOp33
 70
     1
102
RTVSPost2010Prop34
280
     0
102
RTVSPost2010PropOp34
 70
     1
102
RTVSPost2010Prop35
280
     0
102
RTVSPost2010PropOp35
 70
     1
102
RTVSPost2010Prop36
280
     0
102
RTVSPost2010PropOp36
 70
     1
102
RTVSPost2010Prop37
 90
       50
102
RTVSPost2010PropOp37
 70
     1
102
RTVSPost2010Prop38
140
0.0
102
RTVSPost2010PropOp38
 70
     1
102
RTVSPost2010Prop39
140
1.0
102
RTVSPost2010PropOp39
 70
     1
102
RTVSPost2010Prop40
 90
        0
102
RTVSPost2010PropOp40
 70
     1
102
RTVSPost2010Prop41ColorIndex
 90
       18
102
RTVSPost2010Prop41ColorRGB
 90
        0
102
RTVSPost2010PropOp41
 70
     1
102
RTVSPost2010Prop42
 90
       50
102
RTVSPost2010PropOp42
 70
     1
102
RTVSPost2010Prop43
 90
        3
102
RTVSPost2010PropOp43
 70
     1
102
RTVSPost2010Prop44ColorIndex
 90
        5
102
RTVSPost2010Prop44ColorRGB
 90
      255
102
RTVSPost2010PropOp44
 70
     1
102
RTVSPost2010Prop45
280
     0
102
RTVSPost2010PropOp45
 70
     1
102
RTVSPost2010Prop46
 90
       50
102
RTVSPost2010PropOp46
 70
     1
102
RTVSPost2010Prop47
 90
       50
102
RTVSPost2010PropOp47
 70
     1
102
RTVSPost2010Prop48
 90
       50
102
RTVSPost2010PropOp48
 70
     1
102
RTVSPost2010Prop49
280
     0
102
RTVSPost2010PropOp49
 70
     1
102
RTVSPost2010Prop50
 90
       50
102
RTVSPost2010PropOp50
 70
     1
102
RTVSPost2010Prop51ColorIndex
 90
      256
102
RTVSPost2010Prop51ColorRGB
 90
-16777216
102
RTVSPost2010PropOp51
 70
     0
102
RTVSPost2010Prop52
140
1.0
102
RTVSPost2010PropOp52
 70
     0
102
RTVSPost2010Prop53
 90
        2
102
RTVSPost2010PropOp53
 70
     1
102
RTVSPost2010Prop54
  1
strokes_ogs.tif
102
RTVSPost2010PropOp54
 70
     1
102
RTVSPost2010Prop55
280
     0
102
RTVSPost2010PropOp55
 70
     1
102
RTVSPost2010Prop56
140
1.0
102
RTVSPost2010PropOp56
 70
     1
102
RTVSPost2010Prop57
140
1.0
102
RTVSPost2010PropOp57
 70
     1
102
RTVSPropertyOp0
 70
     1
102
RTVSPropertyOp1
 70
     1
102
RTVSPropertyOp2
 70
     1
102
RTVSPropertyOp3
 70
     1
102
RTVSPropertyOp4
 70
     1
102
RTVSPropertyOp5
 70
     1
102
RTVSPropertyOp6
 70
     1
102
RTVSPropertyOp7
 70
     1
102
RTVSPropertyOp8
 70
     1
102
RTVSPropertyOp9
 70
     1
102
RTVSPropertyOp10
 70
     1
102
RTVSPropertyOp11
 70
     1
102
RTVSPropertyOp12
 70
     1
102
RTVSPropertyOp13
 70
     1
102
RTVSPropertyOp14
 70
     1
102
RTVSPropertyOp15
 70
     1
102
RTVSPropertyOp16
 70
     1
102
RTVSPropertyOp17
 70
     1
102
RTVSPropertyOp18
 70
     1
102
RTVSPropertyOp19
 70
     1
102
RTVSPropertyOp20
 70
     1
102
RTVSPropertyOp21
 70
     1
102
RTVSPropertyOp22
 70
     1
102
RTVSPropertyOp23
 70
     1
102
RTVSPropertyOp24
 70
     1
102
RTVSPropertyOp25
 70
     1
102
RTVSPropertyOp26
 70
     1
102
RTVSPropertyOp27
 70
     1
102
RTVSPropertyOp28
 70
     1
102
RTVSPropertyOp29
 70
     1
102
RTVSPropertyOp30
 70
     1
102
RTVSPropertyOp31
 70
     1
102
RTVSPropertyOp32
 70
     1
102
RTVSPropertyOp33
 70
     1
102
RTVSPropertyOp34
 70
     1
102
RTVSPropertyOp35
 70
     1
102
RTVSPropertyOp36
 70
     1
102
RTVSPropertyOp37
 70
     1
102
RTVSPropertyOp38
 70
     1
102
RTVSPropertyOp39
 70
     1
102
RTVSPropertyOp40
 70
     1
102
RTVSPropertyOp41
 70
     1
102
RTVSPropertyOp42
 70
     1
102
RTVSPropertyOp43
 70
     1
102
RTVSPropertyOp44
 70
     1
102
RTVSPropertyOp45
 70
     1
102
RTVSPropertyOp46
 70
     1
102
RTVSPropertyOp47
 70
     1
102
RTVSPropertyOp48
 70
     1
102
RTVSPropertyOp49
 70
     1
102
RTVSPropertyOp50
 70
     1
102
RTVSPropertyOp51
 70
     0
102
RTVSPropertyOp52
 70
     0
102
RTVSPropertyOp53
 70
     1
102
RTVSPropertyOp54
 70
     1
102
RTVSPropertyOp55
 70
     1
102
RTVSPropertyOp56
 70
     1
102
RTVSPropertyOp57
 70
     1
102
RTVSPropertyOp58
 70
     1
102
RTVSPropertyOp59
 70
     1
102
RTVSPropertyOp60
 70
     1
102
RTVSPropertyOp61
 70
     1
102
RTVSPropertyOp62
 70
     1
  0
XRECORD
  5
1A111
102
{ACAD_REACTORS
330
1A110
102
}
330
1A110
100
AcDbXrecord
280
     1
102
RTVSPost2010Prop28
280
     0
102
RTVSPost2010PropOp28
 70
     1
102
RTVSPost2010Prop29
280
     1
102
RTVSPost2010PropOp29
 70
     1
102
RTVSPost2010Prop30
280
     1
102
RTVSPost2010PropOp30
 70
     1
102
RTVSPost2010Prop31
280
     0
102
RTVSPost2010PropOp31
 70
     1
102
RTVSPost2010Prop32
280
     0
102
RTVSPost2010PropOp32
 70
     1
102
RTVSPost2010Prop33
280
     0
102
RTVSPost2010PropOp33
 70
     1
102
RTVSPost2010Prop34
280
     0
102
RTVSPost2010PropOp34
 70
     1
102
RTVSPost2010Prop35
280
     0
102
RTVSPost2010PropOp35
 70
     1
102
RTVSPost2010Prop36
280
     0
102
RTVSPost2010PropOp36
 70
     1
102
RTVSPost2010Prop37
 90
       50
102
RTVSPost2010PropOp37
 70
     1
102
RTVSPost2010Prop38
140
0.0
102
RTVSPost2010PropOp38
 70
     1
102
RTVSPost2010Prop39
140
1.0
102
RTVSPost2010PropOp39
 70
     1
102
RTVSPost2010Prop40
 90
        0
102
RTVSPost2010PropOp40
 70
     1
102
RTVSPost2010Prop41ColorIndex
 90
       18
102
RTVSPost2010Prop41ColorRGB
 90
        0
102
RTVSPost2010PropOp41
 70
     1
102
RTVSPost2010Prop42
 90
       50
102
RTVSPost2010PropOp42
 70
     1
102
RTVSPost2010Prop43
 90
        3
102
RTVSPost2010PropOp43
 70
     1
102
RTVSPost2010Prop44ColorIndex
 90
        5
102
RTVSPost2010Prop44ColorRGB
 90
      255
102
RTVSPost2010PropOp44
 70
     1
102
RTVSPost2010Prop45
280
     0
102
RTVSPost2010PropOp45
 70
     1
102
RTVSPost2010Prop46
 90
       50
102
RTVSPost2010PropOp46
 70
     1
102
RTVSPost2010Prop47
 90
       50
102
RTVSPost2010PropOp47
 70
     1
102
RTVSPost2010Prop48
 90
       50
102
RTVSPost2010PropOp48
 70
     1
102
RTVSPost2010Prop49
280
     0
102
RTVSPost2010PropOp49
 70
     1
102
RTVSPost2010Prop50
 90
       50
102
RTVSPost2010PropOp50
 70
     1
102
RTVSPost2010Prop51ColorIndex
 90
      256
102
RTVSPost2010Prop51ColorRGB
 90
-16777216
102
RTVSPost2010PropOp51
 70
     0
102
RTVSPost2010Prop52
140
1.0
102
RTVSPost2010PropOp52
 70
     0
102
RTVSPost2010Prop53
 90
        2
102
RTVSPost2010PropOp53
 70
     1
102
RTVSPost2010Prop54
  1
strokes_ogs.tif
102
RTVSPost2010PropOp54
 70
     1
102
RTVSPost2010Prop55
280
     0
102
RTVSPost2010PropOp55
 70
     1
102
RTVSPost2010Prop56
140
1.0
102
RTVSPost2010PropOp56
 70
     1
102
RTVSPost2010Prop57
140
1.0
102
RTVSPost2010PropOp57
 70
     1
102
RTVSPropertyOp0
 70
     1
102
RTVSPropertyOp1
 70
     1
102
RTVSPropertyOp2
 70
     1
102
RTVSPropertyOp3
 70
     1
102
RTVSPropertyOp4
 70
     1
102
RTVSPropertyOp5
 70
     1
102
RTVSPropertyOp6
 70
     1
102
RTVSPropertyOp7
 70
     1
102
RTVSPropertyOp8
 70
     1
102
RTVSPropertyOp9
 70
     1
102
RTVSPropertyOp10
 70
     1
102
RTVSPropertyOp11
 70
     1
102
RTVSPropertyOp12
 70
     1
102
RTVSPropertyOp13
 70
     1
102
RTVSPropertyOp14
 70
     1
102
RTVSPropertyOp15
 70
     1
102
RTVSPropertyOp16
 70
     1
102
RTVSPropertyOp17
 70
     1
102
RTVSPropertyOp18
 70
     1
102
RTVSPropertyOp19
 70
     1
102
RTVSPropertyOp20
 70
     1
102
RTVSPropertyOp21
 70
     1
102
RTVSPropertyOp22
 70
     1
102
RTVSPropertyOp23
 70
     1
102
RTVSPropertyOp24
 70
     1
102
RTVSPropertyOp25
 70
     1
102
RTVSPropertyOp26
 70
     1
102
RTVSPropertyOp27
 70
     1
102
RTVSPropertyOp28
 70
     1
102
RTVSPropertyOp29
 70
     1
102
RTVSPropertyOp30
 70
     1
102
RTVSPropertyOp31
 70
     1
102
RTVSPropertyOp32
 70
     1
102
RTVSPropertyOp33
 70
     1
102
RTVSPropertyOp34
 70
     1
102
RTVSPropertyOp35
 70
     1
102
RTVSPropertyOp36
 70
     1
102
RTVSPropertyOp37
 70
     1
102
RTVSPropertyOp38
 70
     1
102
RTVSPropertyOp39
 70
     1
102
RTVSPropertyOp40
 70
     1
102
RTVSPropertyOp41
 70
     1
102
RTVSPropertyOp42
 70
     1
102
RTVSPropertyOp43
 70
     1
102
RTVSPropertyOp44
 70
     1
102
RTVSPropertyOp45
 70
     1
102
RTVSPropertyOp46
 70
     1
102
RTVSPropertyOp47
 70
     1
102
RTVSPropertyOp48
 70
     1
102
RTVSPropertyOp49
 70
     1
102
RTVSPropertyOp50
 70
     1
102
RTVSPropertyOp51
 70
     0
102
RTVSPropertyOp52
 70
     0
102
RTVSPropertyOp53
 70
     1
102
RTVSPropertyOp54
 70
     1
102
RTVSPropertyOp55
 70
     1
102
RTVSPropertyOp56
 70
     1
102
RTVSPropertyOp57
 70
     1
102
RTVSPropertyOp58
 70
     1
102
RTVSPropertyOp59
 70
     1
102
RTVSPropertyOp60
 70
     1
102
RTVSPropertyOp61
 70
     1
102
RTVSPropertyOp62
 70
     1
  0
XRECORD
  5
1A11F
102
{ACAD_REACTORS
330
1A11E
102
}
330
1A11E
100
AcDbXrecord
280
     1
102
RTVSPost2010Prop28
280
     0
102
RTVSPost2010PropOp28
 70
     1
102
RTVSPost2010Prop29
280
     1
102
RTVSPost2010PropOp29
 70
     1
102
RTVSPost2010Prop30
280
     1
102
RTVSPost2010PropOp30
 70
     1
102
RTVSPost2010Prop31
280
     0
102
RTVSPost2010PropOp31
 70
     1
102
RTVSPost2010Prop32
280
     0
102
RTVSPost2010PropOp32
 70
     1
102
RTVSPost2010Prop33
280
     0
102
RTVSPost2010PropOp33
 70
     1
102
RTVSPost2010Prop34
280
     0
102
RTVSPost2010PropOp34
 70
     1
102
RTVSPost2010Prop35
280
     0
102
RTVSPost2010PropOp35
 70
     1
102
RTVSPost2010Prop36
280
     0
102
RTVSPost2010PropOp36
 70
     1
102
RTVSPost2010Prop37
 90
       50
102
RTVSPost2010PropOp37
 70
     1
102
RTVSPost2010Prop38
140
0.0
102
RTVSPost2010PropOp38
 70
     1
102
RTVSPost2010Prop39
140
1.0
102
RTVSPost2010PropOp39
 70
     1
102
RTVSPost2010Prop40
 90
        0
102
RTVSPost2010PropOp40
 70
     1
102
RTVSPost2010Prop41ColorIndex
 90
       18
102
RTVSPost2010Prop41ColorRGB
 90
        0
102
RTVSPost2010PropOp41
 70
     1
102
RTVSPost2010Prop42
 90
       50
102
RTVSPost2010PropOp42
 70
     1
102
RTVSPost2010Prop43
 90
        3
102
RTVSPost2010PropOp43
 70
     1
102
RTVSPost2010Prop44ColorIndex
 90
        5
102
RTVSPost2010Prop44ColorRGB
 90
      255
102
RTVSPost2010PropOp44
 70
     1
102
RTVSPost2010Prop45
280
     0
102
RTVSPost2010PropOp45
 70
     1
102
RTVSPost2010Prop46
 90
       50
102
RTVSPost2010PropOp46
 70
     1
102
RTVSPost2010Prop47
 90
       50
102
RTVSPost2010PropOp47
 70
     1
102
RTVSPost2010Prop48
 90
       50
102
RTVSPost2010PropOp48
 70
     1
102
RTVSPost2010Prop49
280
     0
102
RTVSPost2010PropOp49
 70
     1
102
RTVSPost2010Prop50
 90
       50
102
RTVSPost2010PropOp50
 70
     1
102
RTVSPost2010Prop51ColorIndex
 90
      256
102
RTVSPost2010Prop51ColorRGB
 90
-16777216
102
RTVSPost2010PropOp51
 70
     0
102
RTVSPost2010Prop52
140
1.0
102
RTVSPost2010PropOp52
 70
     0
102
RTVSPost2010Prop53
 90
        2
102
RTVSPost2010PropOp53
 70
     1
102
RTVSPost2010Prop54
  1
strokes_ogs.tif
102
RTVSPost2010PropOp54
 70
     1
102
RTVSPost2010Prop55
280
     0
102
RTVSPost2010PropOp55
 70
     1
102
RTVSPost2010Prop56
140
1.0
102
RTVSPost2010PropOp56
 70
     1
102
RTVSPost2010Prop57
140
1.0
102
RTVSPost2010PropOp57
 70
     1
102
RTVSPropertyOp0
 70
     1
102
RTVSPropertyOp1
 70
     1
102
RTVSPropertyOp2
 70
     1
102
RTVSPropertyOp3
 70
     1
102
RTVSPropertyOp4
 70
     1
102
RTVSPropertyOp5
 70
     1
102
RTVSPropertyOp6
 70
     1
102
RTVSPropertyOp7
 70
     1
102
RTVSPropertyOp8
 70
     1
102
RTVSPropertyOp9
 70
     1
102
RTVSPropertyOp10
 70
     1
102
RTVSPropertyOp11
 70
     1
102
RTVSPropertyOp12
 70
     1
102
RTVSPropertyOp13
 70
     1
102
RTVSPropertyOp14
 70
     1
102
RTVSPropertyOp15
 70
     1
102
RTVSPropertyOp16
 70
     1
102
RTVSPropertyOp17
 70
     1
102
RTVSPropertyOp18
 70
     1
102
RTVSPropertyOp19
 70
     1
102
RTVSPropertyOp20
 70
     1
102
RTVSPropertyOp21
 70
     1
102
RTVSPropertyOp22
 70
     1
102
RTVSPropertyOp23
 70
     1
102
RTVSPropertyOp24
 70
     1
102
RTVSPropertyOp25
 70
     1
102
RTVSPropertyOp26
 70
     1
102
RTVSPropertyOp27
 70
     1
102
RTVSPropertyOp28
 70
     1
102
RTVSPropertyOp29
 70
     1
102
RTVSPropertyOp30
 70
     1
102
RTVSPropertyOp31
 70
     1
102
RTVSPropertyOp32
 70
     1
102
RTVSPropertyOp33
 70
     1
102
RTVSPropertyOp34
 70
     1
102
RTVSPropertyOp35
 70
     1
102
RTVSPropertyOp36
 70
     1
102
RTVSPropertyOp37
 70
     1
102
RTVSPropertyOp38
 70
     1
102
RTVSPropertyOp39
 70
     1
102
RTVSPropertyOp40
 70
     1
102
RTVSPropertyOp41
 70
     1
102
RTVSPropertyOp42
 70
     1
102
RTVSPropertyOp43
 70
     1
102
RTVSPropertyOp44
 70
     1
102
RTVSPropertyOp45
 70
     1
102
RTVSPropertyOp46
 70
     1
102
RTVSPropertyOp47
 70
     1
102
RTVSPropertyOp48
 70
     1
102
RTVSPropertyOp49
 70
     1
102
RTVSPropertyOp50
 70
     1
102
RTVSPropertyOp51
 70
     0
102
RTVSPropertyOp52
 70
     0
102
RTVSPropertyOp53
 70
     1
102
RTVSPropertyOp54
 70
     1
102
RTVSPropertyOp55
 70
     1
102
RTVSPropertyOp56
 70
     1
102
RTVSPropertyOp57
 70
     1
102
RTVSPropertyOp58
 70
     1
102
RTVSPropertyOp59
 70
     1
102
RTVSPropertyOp60
 70
     1
102
RTVSPropertyOp61
 70
     1
102
RTVSPropertyOp62
 70
     1
  0
XRECORD
  5
1A127
102
{ACAD_REACTORS
330
1A126
102
}
330
1A126
100
AcDbXrecord
280
     1
102
RTVSPost2010Prop28
280
     0
102
RTVSPost2010PropOp28
 70
     1
102
RTVSPost2010Prop29
280
     1
102
RTVSPost2010PropOp29
 70
     1
102
RTVSPost2010Prop30
280
     1
102
RTVSPost2010PropOp30
 70
     1
102
RTVSPost2010Prop31
280
     0
102
RTVSPost2010PropOp31
 70
     1
102
RTVSPost2010Prop32
280
     0
102
RTVSPost2010PropOp32
 70
     1
102
RTVSPost2010Prop33
280
     0
102
RTVSPost2010PropOp33
 70
     1
102
RTVSPost2010Prop34
280
     0
102
RTVSPost2010PropOp34
 70
     1
102
RTVSPost2010Prop35
280
     0
102
RTVSPost2010PropOp35
 70
     1
102
RTVSPost2010Prop36
280
     0
102
RTVSPost2010PropOp36
 70
     1
102
RTVSPost2010Prop37
 90
       50
102
RTVSPost2010PropOp37
 70
     1
102
RTVSPost2010Prop38
140
0.0
102
RTVSPost2010PropOp38
 70
     1
102
RTVSPost2010Prop39
140
1.0
102
RTVSPost2010PropOp39
 70
     1
102
RTVSPost2010Prop40
 90
        0
102
RTVSPost2010PropOp40
 70
     1
102
RTVSPost2010Prop41ColorIndex
 90
       18
102
RTVSPost2010Prop41ColorRGB
 90
        0
102
RTVSPost2010PropOp41
 70
     1
102
RTVSPost2010Prop42
 90
       50
102
RTVSPost2010PropOp42
 70
     1
102
RTVSPost2010Prop43
 90
        3
102
RTVSPost2010PropOp43
 70
     1
102
RTVSPost2010Prop44ColorIndex
 90
        5
102
RTVSPost2010Prop44ColorRGB
 90
      255
102
RTVSPost2010PropOp44
 70
     1
102
RTVSPost2010Prop45
280
     0
102
RTVSPost2010PropOp45
 70
     1
102
RTVSPost2010Prop46
 90
       50
102
RTVSPost2010PropOp46
 70
     1
102
RTVSPost2010Prop47
 90
       50
102
RTVSPost2010PropOp47
 70
     1
102
RTVSPost2010Prop48
 90
       50
102
RTVSPost2010PropOp48
 70
     1
102
RTVSPost2010Prop49
280
     0
102
RTVSPost2010PropOp49
 70
     1
102
RTVSPost2010Prop50
 90
       50
102
RTVSPost2010PropOp50
 70
     1
102
RTVSPost2010Prop51ColorIndex
 90
      256
102
RTVSPost2010Prop51ColorRGB
 90
-16777216
102
RTVSPost2010PropOp51
 70
     0
102
RTVSPost2010Prop52
140
1.0
102
RTVSPost2010PropOp52
 70
     0
102
RTVSPost2010Prop53
 90
        2
102
RTVSPost2010PropOp53
 70
     1
102
RTVSPost2010Prop54
  1
strokes_ogs.tif
102
RTVSPost2010PropOp54
 70
     1
102
RTVSPost2010Prop55
280
     0
102
RTVSPost2010PropOp55
 70
     1
102
RTVSPost2010Prop56
140
1.0
102
RTVSPost2010PropOp56
 70
     1
102
RTVSPost2010Prop57
140
1.0
102
RTVSPost2010PropOp57
 70
     1
102
RTVSPropertyOp0
 70
     1
102
RTVSPropertyOp1
 70
     1
102
RTVSPropertyOp2
 70
     1
102
RTVSPropertyOp3
 70
     1
102
RTVSPropertyOp4
 70
     1
102
RTVSPropertyOp5
 70
     1
102
RTVSPropertyOp6
 70
     1
102
RTVSPropertyOp7
 70
     1
102
RTVSPropertyOp8
 70
     1
102
RTVSPropertyOp9
 70
     1
102
RTVSPropertyOp10
 70
     1
102
RTVSPropertyOp11
 70
     1
102
RTVSPropertyOp12
 70
     1
102
RTVSPropertyOp13
 70
     1
102
RTVSPropertyOp14
 70
     1
102
RTVSPropertyOp15
 70
     1
102
RTVSPropertyOp16
 70
     1
102
RTVSPropertyOp17
 70
     1
102
RTVSPropertyOp18
 70
     1
102
RTVSPropertyOp19
 70
     1
102
RTVSPropertyOp20
 70
     1
102
RTVSPropertyOp21
 70
     1
102
RTVSPropertyOp22
 70
     1
102
RTVSPropertyOp23
 70
     1
102
RTVSPropertyOp24
 70
     1
102
RTVSPropertyOp25
 70
     1
102
RTVSPropertyOp26
 70
     1
102
RTVSPropertyOp27
 70
     1
102
RTVSPropertyOp28
 70
     1
102
RTVSPropertyOp29
 70
     1
102
RTVSPropertyOp30
 70
     1
102
RTVSPropertyOp31
 70
     1
102
RTVSPropertyOp32
 70
     1
102
RTVSPropertyOp33
 70
     1
102
RTVSPropertyOp34
 70
     1
102
RTVSPropertyOp35
 70
     1
102
RTVSPropertyOp36
 70
     1
102
RTVSPropertyOp37
 70
     1
102
RTVSPropertyOp38
 70
     1
102
RTVSPropertyOp39
 70
     1
102
RTVSPropertyOp40
 70
     1
102
RTVSPropertyOp41
 70
     1
102
RTVSPropertyOp42
 70
     1
102
RTVSPropertyOp43
 70
     1
102
RTVSPropertyOp44
 70
     1
102
RTVSPropertyOp45
 70
     1
102
RTVSPropertyOp46
 70
     1
102
RTVSPropertyOp47
 70
     1
102
RTVSPropertyOp48
 70
     1
102
RTVSPropertyOp49
 70
     1
102
RTVSPropertyOp50
 70
     1
102
RTVSPropertyOp51
 70
     0
102
RTVSPropertyOp52
 70
     0
102
RTVSPropertyOp53
 70
     1
102
RTVSPropertyOp54
 70
     1
102
RTVSPropertyOp55
 70
     1
102
RTVSPropertyOp56
 70
     1
102
RTVSPropertyOp57
 70
     1
102
RTVSPropertyOp58
 70
     1
102
RTVSPropertyOp59
 70
     1
102
RTVSPropertyOp60
 70
     1
102
RTVSPropertyOp61
 70
     1
102
RTVSPropertyOp62
 70
     1
  0
XRECORD
  5
1A119
102
{ACAD_REACTORS
330
1A118
102
}
330
1A118
100
AcDbXrecord
280
     1
102
RTVSPost2010Prop28
280
     0
102
RTVSPost2010PropOp28
 70
     1
102
RTVSPost2010Prop29
280
     1
102
RTVSPost2010PropOp29
 70
     1
102
RTVSPost2010Prop30
280
     1
102
RTVSPost2010PropOp30
 70
     1
102
RTVSPost2010Prop31
280
     0
102
RTVSPost2010PropOp31
 70
     1
102
RTVSPost2010Prop32
280
     0
102
RTVSPost2010PropOp32
 70
     1
102
RTVSPost2010Prop33
280
     0
102
RTVSPost2010PropOp33
 70
     1
102
RTVSPost2010Prop34
280
     0
102
RTVSPost2010PropOp34
 70
     1
102
RTVSPost2010Prop35
280
     0
102
RTVSPost2010PropOp35
 70
     1
102
RTVSPost2010Prop36
280
     0
102
RTVSPost2010PropOp36
 70
     1
102
RTVSPost2010Prop37
 90
       50
102
RTVSPost2010PropOp37
 70
     1
102
RTVSPost2010Prop38
140
0.0
102
RTVSPost2010PropOp38
 70
     1
102
RTVSPost2010Prop39
140
1.0
102
RTVSPost2010PropOp39
 70
     1
102
RTVSPost2010Prop40
 90
        0
102
RTVSPost2010PropOp40
 70
     1
102
RTVSPost2010Prop41ColorIndex
 90
       18
102
RTVSPost2010Prop41ColorRGB
 90
        0
102
RTVSPost2010PropOp41
 70
     1
102
RTVSPost2010Prop42
 90
       50
102
RTVSPost2010PropOp42
 70
     1
102
RTVSPost2010Prop43
 90
        3
102
RTVSPost2010PropOp43
 70
     1
102
RTVSPost2010Prop44ColorIndex
 90
        5
102
RTVSPost2010Prop44ColorRGB
 90
      255
102
RTVSPost2010PropOp44
 70
     1
102
RTVSPost2010Prop45
280
     0
102
RTVSPost2010PropOp45
 70
     1
102
RTVSPost2010Prop46
 90
       50
102
RTVSPost2010PropOp46
 70
     1
102
RTVSPost2010Prop47
 90
       50
102
RTVSPost2010PropOp47
 70
     1
102
RTVSPost2010Prop48
 90
       50
102
RTVSPost2010PropOp48
 70
     1
102
RTVSPost2010Prop49
280
     0
102
RTVSPost2010PropOp49
 70
     1
102
RTVSPost2010Prop50
 90
       50
102
RTVSPost2010PropOp50
 70
     1
102
RTVSPost2010Prop51ColorIndex
 90
      256
102
RTVSPost2010Prop51ColorRGB
 90
-16777216
102
RTVSPost2010PropOp51
 70
     0
102
RTVSPost2010Prop52
140
1.0
102
RTVSPost2010PropOp52
 70
     0
102
RTVSPost2010Prop53
 90
        2
102
RTVSPost2010PropOp53
 70
     1
102
RTVSPost2010Prop54
  1
strokes_ogs.tif
102
RTVSPost2010PropOp54
 70
     1
102
RTVSPost2010Prop55
280
     0
102
RTVSPost2010PropOp55
 70
     1
102
RTVSPost2010Prop56
140
1.0
102
RTVSPost2010PropOp56
 70
     1
102
RTVSPost2010Prop57
140
1.0
102
RTVSPost2010PropOp57
 70
     1
102
RTVSPropertyOp0
 70
     1
102
RTVSPropertyOp1
 70
     1
102
RTVSPropertyOp2
 70
     1
102
RTVSPropertyOp3
 70
     1
102
RTVSPropertyOp4
 70
     1
102
RTVSPropertyOp5
 70
     1
102
RTVSPropertyOp6
 70
     1
102
RTVSPropertyOp7
 70
     1
102
RTVSPropertyOp8
 70
     1
102
RTVSPropertyOp9
 70
     1
102
RTVSPropertyOp10
 70
     1
102
RTVSPropertyOp11
 70
     1
102
RTVSPropertyOp12
 70
     1
102
RTVSPropertyOp13
 70
     1
102
RTVSPropertyOp14
 70
     1
102
RTVSPropertyOp15
 70
     1
102
RTVSPropertyOp16
 70
     1
102
RTVSPropertyOp17
 70
     1
102
RTVSPropertyOp18
 70
     1
102
RTVSPropertyOp19
 70
     1
102
RTVSPropertyOp20
 70
     1
102
RTVSPropertyOp21
 70
     1
102
RTVSPropertyOp22
 70
     1
102
RTVSPropertyOp23
 70
     1
102
RTVSPropertyOp24
 70
     1
102
RTVSPropertyOp25
 70
     1
102
RTVSPropertyOp26
 70
     1
102
RTVSPropertyOp27
 70
     1
102
RTVSPropertyOp28
 70
     1
102
RTVSPropertyOp29
 70
     1
102
RTVSPropertyOp30
 70
     1
102
RTVSPropertyOp31
 70
     1
102
RTVSPropertyOp32
 70
     1
102
RTVSPropertyOp33
 70
     1
102
RTVSPropertyOp34
 70
     1
102
RTVSPropertyOp35
 70
     1
102
RTVSPropertyOp36
 70
     1
102
RTVSPropertyOp37
 70
     1
102
RTVSPropertyOp38
 70
     1
102
RTVSPropertyOp39
 70
     1
102
RTVSPropertyOp40
 70
     1
102
RTVSPropertyOp41
 70
     1
102
RTVSPropertyOp42
 70
     1
102
RTVSPropertyOp43
 70
     1
102
RTVSPropertyOp44
 70
     1
102
RTVSPropertyOp45
 70
     1
102
RTVSPropertyOp46
 70
     1
102
RTVSPropertyOp47
 70
     1
102
RTVSPropertyOp48
 70
     1
102
RTVSPropertyOp49
 70
     1
102
RTVSPropertyOp50
 70
     1
102
RTVSPropertyOp51
 70
     0
102
RTVSPropertyOp52
 70
     0
102
RTVSPropertyOp53
 70
     1
102
RTVSPropertyOp54
 70
     1
102
RTVSPropertyOp55
 70
     1
102
RTVSPropertyOp56
 70
     1
102
RTVSPropertyOp57
 70
     1
102
RTVSPropertyOp58
 70
     1
102
RTVSPropertyOp59
 70
     1
102
RTVSPropertyOp60
 70
     1
102
RTVSPropertyOp61
 70
     1
102
RTVSPropertyOp62
 70
     1
  0
XRECORD
  5
1A11D
102
{ACAD_REACTORS
330
1A11C
102
}
330
1A11C
100
AcDbXrecord
280
     1
102
RTVSPost2010Prop28
280
     0
102
RTVSPost2010PropOp28
 70
     1
102
RTVSPost2010Prop29
280
     1
102
RTVSPost2010PropOp29
 70
     1
102
RTVSPost2010Prop30
280
     1
102
RTVSPost2010PropOp30
 70
     1
102
RTVSPost2010Prop31
280
     0
102
RTVSPost2010PropOp31
 70
     1
102
RTVSPost2010Prop32
280
     0
102
RTVSPost2010PropOp32
 70
     1
102
RTVSPost2010Prop33
280
     0
102
RTVSPost2010PropOp33
 70
     1
102
RTVSPost2010Prop34
280
     0
102
RTVSPost2010PropOp34
 70
     1
102
RTVSPost2010Prop35
280
     0
102
RTVSPost2010PropOp35
 70
     1
102
RTVSPost2010Prop36
280
     0
102
RTVSPost2010PropOp36
 70
     1
102
RTVSPost2010Prop37
 90
       50
102
RTVSPost2010PropOp37
 70
     1
102
RTVSPost2010Prop38
140
0.0
102
RTVSPost2010PropOp38
 70
     1
102
RTVSPost2010Prop39
140
1.0
102
RTVSPost2010PropOp39
 70
     1
102
RTVSPost2010Prop40
 90
        0
102
RTVSPost2010PropOp40
 70
     1
102
RTVSPost2010Prop41ColorIndex
 90
       18
102
RTVSPost2010Prop41ColorRGB
 90
        0
102
RTVSPost2010PropOp41
 70
     1
102
RTVSPost2010Prop42
 90
       50
102
RTVSPost2010PropOp42
 70
     1
102
RTVSPost2010Prop43
 90
        3
102
RTVSPost2010PropOp43
 70
     1
102
RTVSPost2010Prop44ColorIndex
 90
        5
102
RTVSPost2010Prop44ColorRGB
 90
      255
102
RTVSPost2010PropOp44
 70
     1
102
RTVSPost2010Prop45
280
     0
102
RTVSPost2010PropOp45
 70
     1
102
RTVSPost2010Prop46
 90
       50
102
RTVSPost2010PropOp46
 70
     1
102
RTVSPost2010Prop47
 90
       50
102
RTVSPost2010PropOp47
 70
     1
102
RTVSPost2010Prop48
 90
       50
102
RTVSPost2010PropOp48
 70
     1
102
RTVSPost2010Prop49
280
     0
102
RTVSPost2010PropOp49
 70
     1
102
RTVSPost2010Prop50
 90
       50
102
RTVSPost2010PropOp50
 70
     1
102
RTVSPost2010Prop51ColorIndex
 90
      256
102
RTVSPost2010Prop51ColorRGB
 90
-16777216
102
RTVSPost2010PropOp51
 70
     0
102
RTVSPost2010Prop52
140
1.0
102
RTVSPost2010PropOp52
 70
     0
102
RTVSPost2010Prop53
 90
        2
102
RTVSPost2010PropOp53
 70
     1
102
RTVSPost2010Prop54
  1
strokes_ogs.tif
102
RTVSPost2010PropOp54
 70
     1
102
RTVSPost2010Prop55
280
     0
102
RTVSPost2010PropOp55
 70
     1
102
RTVSPost2010Prop56
140
1.0
102
RTVSPost2010PropOp56
 70
     1
102
RTVSPost2010Prop57
140
1.0
102
RTVSPost2010PropOp57
 70
     1
102
RTVSPropertyOp0
 70
     1
102
RTVSPropertyOp1
 70
     1
102
RTVSPropertyOp2
 70
     1
102
RTVSPropertyOp3
 70
     1
102
RTVSPropertyOp4
 70
     1
102
RTVSPropertyOp5
 70
     1
102
RTVSPropertyOp6
 70
     1
102
RTVSPropertyOp7
 70
     1
102
RTVSPropertyOp8
 70
     1
102
RTVSPropertyOp9
 70
     1
102
RTVSPropertyOp10
 70
     1
102
RTVSPropertyOp11
 70
     1
102
RTVSPropertyOp12
 70
     1
102
RTVSPropertyOp13
 70
     1
102
RTVSPropertyOp14
 70
     1
102
RTVSPropertyOp15
 70
     1
102
RTVSPropertyOp16
 70
     1
102
RTVSPropertyOp17
 70
     1
102
RTVSPropertyOp18
 70
     1
102
RTVSPropertyOp19
 70
     1
102
RTVSPropertyOp20
 70
     1
102
RTVSPropertyOp21
 70
     1
102
RTVSPropertyOp22
 70
     1
102
RTVSPropertyOp23
 70
     1
102
RTVSPropertyOp24
 70
     1
102
RTVSPropertyOp25
 70
     1
102
RTVSPropertyOp26
 70
     1
102
RTVSPropertyOp27
 70
     1
102
RTVSPropertyOp28
 70
     1
102
RTVSPropertyOp29
 70
     1
102
RTVSPropertyOp30
 70
     1
102
RTVSPropertyOp31
 70
     1
102
RTVSPropertyOp32
 70
     1
102
RTVSPropertyOp33
 70
     1
102
RTVSPropertyOp34
 70
     1
102
RTVSPropertyOp35
 70
     1
102
RTVSPropertyOp36
 70
     1
102
RTVSPropertyOp37
 70
     1
102
RTVSPropertyOp38
 70
     1
102
RTVSPropertyOp39
 70
     1
102
RTVSPropertyOp40
 70
     1
102
RTVSPropertyOp41
 70
     1
102
RTVSPropertyOp42
 70
     1
102
RTVSPropertyOp43
 70
     1
102
RTVSPropertyOp44
 70
     1
102
RTVSPropertyOp45
 70
     1
102
RTVSPropertyOp46
 70
     1
102
RTVSPropertyOp47
 70
     1
102
RTVSPropertyOp48
 70
     1
102
RTVSPropertyOp49
 70
     1
102
RTVSPropertyOp50
 70
     1
102
RTVSPropertyOp51
 70
     0
102
RTVSPropertyOp52
 70
     0
102
RTVSPropertyOp53
 70
     1
102
RTVSPropertyOp54
 70
     1
102
RTVSPropertyOp55
 70
     1
102
RTVSPropertyOp56
 70
     1
102
RTVSPropertyOp57
 70
     1
102
RTVSPropertyOp58
 70
     1
102
RTVSPropertyOp59
 70
     1
102
RTVSPropertyOp60
 70
     1
102
RTVSPropertyOp61
 70
     1
102
RTVSPropertyOp62
 70
     1
  0
XRECORD
  5
1A12F
102
{ACAD_REACTORS
330
1A12E
102
}
330
1A12E
100
AcDbXrecord
280
     1
102
RTVSPost2010Prop28
280
     0
102
RTVSPost2010PropOp28
 70
     1
102
RTVSPost2010Prop29
280
     1
102
RTVSPost2010PropOp29
 70
     1
102
RTVSPost2010Prop30
280
     1
102
RTVSPost2010PropOp30
 70
     1
102
RTVSPost2010Prop31
280
     0
102
RTVSPost2010PropOp31
 70
     1
102
RTVSPost2010Prop32
280
     0
102
RTVSPost2010PropOp32
 70
     1
102
RTVSPost2010Prop33
280
     0
102
RTVSPost2010PropOp33
 70
     1
102
RTVSPost2010Prop34
280
     0
102
RTVSPost2010PropOp34
 70
     1
102
RTVSPost2010Prop35
280
     0
102
RTVSPost2010PropOp35
 70
     1
102
RTVSPost2010Prop36
280
     0
102
RTVSPost2010PropOp36
 70
     1
102
RTVSPost2010Prop37
 90
       50
102
RTVSPost2010PropOp37
 70
     1
102
RTVSPost2010Prop38
140
0.0
102
RTVSPost2010PropOp38
 70
     1
102
RTVSPost2010Prop39
140
1.0
102
RTVSPost2010PropOp39
 70
     1
102
RTVSPost2010Prop40
 90
        0
102
RTVSPost2010PropOp40
 70
     1
102
RTVSPost2010Prop41ColorIndex
 90
       18
102
RTVSPost2010Prop41ColorRGB
 90
        0
102
RTVSPost2010PropOp41
 70
     1
102
RTVSPost2010Prop42
 90
       50
102
RTVSPost2010PropOp42
 70
     1
102
RTVSPost2010Prop43
 90
        3
102
RTVSPost2010PropOp43
 70
     1
102
RTVSPost2010Prop44ColorIndex
 90
        5
102
RTVSPost2010Prop44ColorRGB
 90
      255
102
RTVSPost2010PropOp44
 70
     1
102
RTVSPost2010Prop45
280
     0
102
RTVSPost2010PropOp45
 70
     1
102
RTVSPost2010Prop46
 90
       50
102
RTVSPost2010PropOp46
 70
     1
102
RTVSPost2010Prop47
 90
       50
102
RTVSPost2010PropOp47
 70
     1
102
RTVSPost2010Prop48
 90
       50
102
RTVSPost2010PropOp48
 70
     1
102
RTVSPost2010Prop49
280
     0
102
RTVSPost2010PropOp49
 70
     1
102
RTVSPost2010Prop50
 90
       50
102
RTVSPost2010PropOp50
 70
     1
102
RTVSPost2010Prop51ColorIndex
 90
      256
102
RTVSPost2010Prop51ColorRGB
 90
-16777216
102
RTVSPost2010PropOp51
 70
     0
102
RTVSPost2010Prop52
140
1.0
102
RTVSPost2010PropOp52
 70
     0
102
RTVSPost2010Prop53
 90
        2
102
RTVSPost2010PropOp53
 70
     1
102
RTVSPost2010Prop54
  1
strokes_ogs.tif
102
RTVSPost2010PropOp54
 70
     1
102
RTVSPost2010Prop55
280
     0
102
RTVSPost2010PropOp55
 70
     1
102
RTVSPost2010Prop56
140
1.0
102
RTVSPost2010PropOp56
 70
     1
102
RTVSPost2010Prop57
140
1.0
102
RTVSPost2010PropOp57
 70
     1
102
RTVSPropertyOp0
 70
     0
102
RTVSPropertyOp1
 70
     0
102
RTVSPropertyOp2
 70
     0
102
RTVSPropertyOp3
 70
     0
102
RTVSPropertyOp4
 70
     0
102
RTVSPropertyOp5
 70
     0
102
RTVSPropertyOp6
 70
     0
102
RTVSPropertyOp7
 70
     0
102
RTVSPropertyOp8
 70
     0
102
RTVSPropertyOp9
 70
     0
102
RTVSPropertyOp10
 70
     0
102
RTVSPropertyOp11
 70
     0
102
RTVSPropertyOp12
 70
     0
102
RTVSPropertyOp13
 70
     0
102
RTVSPropertyOp14
 70
     2
102
RTVSPropertyOp15
 70
     0
102
RTVSPropertyOp16
 70
     0
102
RTVSPropertyOp17
 70
     0
102
RTVSPropertyOp18
 70
     0
102
RTVSPropertyOp19
 70
     0
102
RTVSPropertyOp20
 70
     0
102
RTVSPropertyOp21
 70
     0
102
RTVSPropertyOp22
 70
     0
102
RTVSPropertyOp23
 70
     0
102
RTVSPropertyOp24
 70
     0
102
RTVSPropertyOp25
 70
     0
102
RTVSPropertyOp26
 70
     0
102
RTVSPropertyOp27
 70
     0
102
RTVSPropertyOp28
 70
     1
102
RTVSPropertyOp29
 70
     1
102
RTVSPropertyOp30
 70
     1
102
RTVSPropertyOp31
 70
     1
102
RTVSPropertyOp32
 70
     1
102
RTVSPropertyOp33
 70
     1
102
RTVSPropertyOp34
 70
     1
102
RTVSPropertyOp35
 70
     1
102
RTVSPropertyOp36
 70
     1
102
RTVSPropertyOp37
 70
     1
102
RTVSPropertyOp38
 70
     1
102
RTVSPropertyOp39
 70
     1
102
RTVSPropertyOp40
 70
     1
102
RTVSPropertyOp41
 70
     1
102
RTVSPropertyOp42
 70
     1
102
RTVSPropertyOp43
 70
     1
102
RTVSPropertyOp44
 70
     1
102
RTVSPropertyOp45
 70
     1
102
RTVSPropertyOp46
 70
     1
102
RTVSPropertyOp47
 70
     1
102
RTVSPropertyOp48
 70
     1
102
RTVSPropertyOp49
 70
     1
102
RTVSPropertyOp50
 70
     1
102
RTVSPropertyOp51
 70
     0
102
RTVSPropertyOp52
 70
     0
102
RTVSPropertyOp53
 70
     1
102
RTVSPropertyOp54
 70
     1
102
RTVSPropertyOp55
 70
     1
102
RTVSPropertyOp56
 70
     1
102
RTVSPropertyOp57
 70
     1
102
RTVSPropertyOp58
 70
     1
102
RTVSPropertyOp59
 70
     1
102
RTVSPropertyOp60
 70
     1
102
RTVSPropertyOp61
 70
     1
102
RTVSPropertyOp62
 70
     1
  0
XRECORD
  5
1A125
102
{ACAD_REACTORS
330
1A124
102
}
330
1A124
100
AcDbXrecord
280
     1
102
RTVSPost2010Prop28
280
     0
102
RTVSPost2010PropOp28
 70
     1
102
RTVSPost2010Prop29
280
     1
102
RTVSPost2010PropOp29
 70
     1
102
RTVSPost2010Prop30
280
     1
102
RTVSPost2010PropOp30
 70
     1
102
RTVSPost2010Prop31
280
     0
102
RTVSPost2010PropOp31
 70
     1
102
RTVSPost2010Prop32
280
     0
102
RTVSPost2010PropOp32
 70
     1
102
RTVSPost2010Prop33
280
     0
102
RTVSPost2010PropOp33
 70
     1
102
RTVSPost2010Prop34
280
     0
102
RTVSPost2010PropOp34
 70
     1
102
RTVSPost2010Prop35
280
     0
102
RTVSPost2010PropOp35
 70
     1
102
RTVSPost2010Prop36
280
     0
102
RTVSPost2010PropOp36
 70
     1
102
RTVSPost2010Prop37
 90
       50
102
RTVSPost2010PropOp37
 70
     1
102
RTVSPost2010Prop38
140
0.0
102
RTVSPost2010PropOp38
 70
     1
102
RTVSPost2010Prop39
140
1.0
102
RTVSPost2010PropOp39
 70
     1
102
RTVSPost2010Prop40
 90
        0
102
RTVSPost2010PropOp40
 70
     1
102
RTVSPost2010Prop41ColorIndex
 90
       18
102
RTVSPost2010Prop41ColorRGB
 90
        0
102
RTVSPost2010PropOp41
 70
     1
102
RTVSPost2010Prop42
 90
       50
102
RTVSPost2010PropOp42
 70
     1
102
RTVSPost2010Prop43
 90
        3
102
RTVSPost2010PropOp43
 70
     1
102
RTVSPost2010Prop44ColorIndex
 90
        5
102
RTVSPost2010Prop44ColorRGB
 90
      255
102
RTVSPost2010PropOp44
 70
     1
102
RTVSPost2010Prop45
280
     0
102
RTVSPost2010PropOp45
 70
     1
102
RTVSPost2010Prop46
 90
       50
102
RTVSPost2010PropOp46
 70
     1
102
RTVSPost2010Prop47
 90
       50
102
RTVSPost2010PropOp47
 70
     1
102
RTVSPost2010Prop48
 90
       50
102
RTVSPost2010PropOp48
 70
     1
102
RTVSPost2010Prop49
280
     0
102
RTVSPost2010PropOp49
 70
     1
102
RTVSPost2010Prop50
 90
       50
102
RTVSPost2010PropOp50
 70
     1
102
RTVSPost2010Prop51ColorIndex
 90
      256
102
RTVSPost2010Prop51ColorRGB
 90
-16777216
102
RTVSPost2010PropOp51
 70
     0
102
RTVSPost2010Prop52
140
1.0
102
RTVSPost2010PropOp52
 70
     0
102
RTVSPost2010Prop53
 90
        2
102
RTVSPost2010PropOp53
 70
     1
102
RTVSPost2010Prop54
  1
strokes_ogs.tif
102
RTVSPost2010PropOp54
 70
     1
102
RTVSPost2010Prop55
280
     0
102
RTVSPost2010PropOp55
 70
     1
102
RTVSPost2010Prop56
140
1.0
102
RTVSPost2010PropOp56
 70
     1
102
RTVSPost2010Prop57
140
1.0
102
RTVSPost2010PropOp57
 70
     1
102
RTVSPropertyOp0
 70
     1
102
RTVSPropertyOp1
 70
     1
102
RTVSPropertyOp2
 70
     1
102
RTVSPropertyOp3
 70
     1
102
RTVSPropertyOp4
 70
     1
102
RTVSPropertyOp5
 70
     1
102
RTVSPropertyOp6
 70
     1
102
RTVSPropertyOp7
 70
     1
102
RTVSPropertyOp8
 70
     1
102
RTVSPropertyOp9
 70
     1
102
RTVSPropertyOp10
 70
     1
102
RTVSPropertyOp11
 70
     1
102
RTVSPropertyOp12
 70
     1
102
RTVSPropertyOp13
 70
     1
102
RTVSPropertyOp14
 70
     1
102
RTVSPropertyOp15
 70
     1
102
RTVSPropertyOp16
 70
     1
102
RTVSPropertyOp17
 70
     1
102
RTVSPropertyOp18
 70
     1
102
RTVSPropertyOp19
 70
     1
102
RTVSPropertyOp20
 70
     1
102
RTVSPropertyOp21
 70
     1
102
RTVSPropertyOp22
 70
     1
102
RTVSPropertyOp23
 70
     1
102
RTVSPropertyOp24
 70
     1
102
RTVSPropertyOp25
 70
     1
102
RTVSPropertyOp26
 70
     1
102
RTVSPropertyOp27
 70
     1
102
RTVSPropertyOp28
 70
     1
102
RTVSPropertyOp29
 70
     1
102
RTVSPropertyOp30
 70
     1
102
RTVSPropertyOp31
 70
     1
102
RTVSPropertyOp32
 70
     1
102
RTVSPropertyOp33
 70
     1
102
RTVSPropertyOp34
 70
     1
102
RTVSPropertyOp35
 70
     1
102
RTVSPropertyOp36
 70
     1
102
RTVSPropertyOp37
 70
     1
102
RTVSPropertyOp38
 70
     1
102
RTVSPropertyOp39
 70
     1
102
RTVSPropertyOp40
 70
     1
102
RTVSPropertyOp41
 70
     1
102
RTVSPropertyOp42
 70
     1
102
RTVSPropertyOp43
 70
     1
102
RTVSPropertyOp44
 70
     1
102
RTVSPropertyOp45
 70
     1
102
RTVSPropertyOp46
 70
     1
102
RTVSPropertyOp47
 70
     1
102
RTVSPropertyOp48
 70
     1
102
RTVSPropertyOp49
 70
     1
102
RTVSPropertyOp50
 70
     1
102
RTVSPropertyOp51
 70
     0
102
RTVSPropertyOp52
 70
     0
102
RTVSPropertyOp53
 70
     1
102
RTVSPropertyOp54
 70
     1
102
RTVSPropertyOp55
 70
     1
102
RTVSPropertyOp56
 70
     1
102
RTVSPropertyOp57
 70
     1
102
RTVSPropertyOp58
 70
     1
102
RTVSPropertyOp59
 70
     1
102
RTVSPropertyOp60
 70
     1
102
RTVSPropertyOp61
 70
     1
102
RTVSPropertyOp62
 70
     1
  0
XRECORD
  5
1A109
102
{ACAD_REACTORS
330
1A108
102
}
330
1A108
100
AcDbXrecord
280
     1
102
RTVSPost2010Prop28
280
     0
102
RTVSPost2010PropOp28
 70
     1
102
RTVSPost2010Prop29
280
     1
102
RTVSPost2010PropOp29
 70
     1
102
RTVSPost2010Prop30
280
     1
102
RTVSPost2010PropOp30
 70
     1
102
RTVSPost2010Prop31
280
     0
102
RTVSPost2010PropOp31
 70
     1
102
RTVSPost2010Prop32
280
     0
102
RTVSPost2010PropOp32
 70
     1
102
RTVSPost2010Prop33
280
     0
102
RTVSPost2010PropOp33
 70
     1
102
RTVSPost2010Prop34
280
     0
102
RTVSPost2010PropOp34
 70
     1
102
RTVSPost2010Prop35
280
     0
102
RTVSPost2010PropOp35
 70
     1
102
RTVSPost2010Prop36
280
     0
102
RTVSPost2010PropOp36
 70
     1
102
RTVSPost2010Prop37
 90
       50
102
RTVSPost2010PropOp37
 70
     1
102
RTVSPost2010Prop38
140
0.0
102
RTVSPost2010PropOp38
 70
     1
102
RTVSPost2010Prop39
140
1.0
102
RTVSPost2010PropOp39
 70
     1
102
RTVSPost2010Prop40
 90
        0
102
RTVSPost2010PropOp40
 70
     1
102
RTVSPost2010Prop41ColorIndex
 90
       18
102
RTVSPost2010Prop41ColorRGB
 90
        0
102
RTVSPost2010PropOp41
 70
     1
102
RTVSPost2010Prop42
 90
       50
102
RTVSPost2010PropOp42
 70
     1
102
RTVSPost2010Prop43
 90
        3
102
RTVSPost2010PropOp43
 70
     1
102
RTVSPost2010Prop44ColorIndex
 90
        5
102
RTVSPost2010Prop44ColorRGB
 90
      255
102
RTVSPost2010PropOp44
 70
     1
102
RTVSPost2010Prop45
280
     0
102
RTVSPost2010PropOp45
 70
     1
102
RTVSPost2010Prop46
 90
       50
102
RTVSPost2010PropOp46
 70
     1
102
RTVSPost2010Prop47
 90
       50
102
RTVSPost2010PropOp47
 70
     1
102
RTVSPost2010Prop48
 90
       50
102
RTVSPost2010PropOp48
 70
     1
102
RTVSPost2010Prop49
280
     0
102
RTVSPost2010PropOp49
 70
     1
102
RTVSPost2010Prop50
 90
       50
102
RTVSPost2010PropOp50
 70
     1
102
RTVSPost2010Prop51ColorIndex
 90
      256
102
RTVSPost2010Prop51ColorRGB
 90
-16777216
102
RTVSPost2010PropOp51
 70
     0
102
RTVSPost2010Prop52
140
1.0
102
RTVSPost2010PropOp52
 70
     0
102
RTVSPost2010Prop53
 90
        2
102
RTVSPost2010PropOp53
 70
     1
102
RTVSPost2010Prop54
  1
strokes_ogs.tif
102
RTVSPost2010PropOp54
 70
     1
102
RTVSPost2010Prop55
280
     0
102
RTVSPost2010PropOp55
 70
     1
102
RTVSPost2010Prop56
140
1.0
102
RTVSPost2010PropOp56
 70
     1
102
RTVSPost2010Prop57
140
1.0
102
RTVSPost2010PropOp57
 70
     1
102
RTVSPropertyOp0
 70
     1
102
RTVSPropertyOp1
 70
     1
102
RTVSPropertyOp2
 70
     1
102
RTVSPropertyOp3
 70
     1
102
RTVSPropertyOp4
 70
     1
102
RTVSPropertyOp5
 70
     1
102
RTVSPropertyOp6
 70
     1
102
RTVSPropertyOp7
 70
     1
102
RTVSPropertyOp8
 70
     1
102
RTVSPropertyOp9
 70
     1
102
RTVSPropertyOp10
 70
     1
102
RTVSPropertyOp11
 70
     1
102
RTVSPropertyOp12
 70
     1
102
RTVSPropertyOp13
 70
     1
102
RTVSPropertyOp14
 70
     1
102
RTVSPropertyOp15
 70
     1
102
RTVSPropertyOp16
 70
     1
102
RTVSPropertyOp17
 70
     1
102
RTVSPropertyOp18
 70
     1
102
RTVSPropertyOp19
 70
     1
102
RTVSPropertyOp20
 70
     1
102
RTVSPropertyOp21
 70
     1
102
RTVSPropertyOp22
 70
     1
102
RTVSPropertyOp23
 70
     1
102
RTVSPropertyOp24
 70
     1
102
RTVSPropertyOp25
 70
     1
102
RTVSPropertyOp26
 70
     1
102
RTVSPropertyOp27
 70
     1
102
RTVSPropertyOp28
 70
     1
102
RTVSPropertyOp29
 70
     1
102
RTVSPropertyOp30
 70
     1
102
RTVSPropertyOp31
 70
     1
102
RTVSPropertyOp32
 70
     1
102
RTVSPropertyOp33
 70
     1
102
RTVSPropertyOp34
 70
     1
102
RTVSPropertyOp35
 70
     1
102
RTVSPropertyOp36
 70
     1
102
RTVSPropertyOp37
 70
     1
102
RTVSPropertyOp38
 70
     1
102
RTVSPropertyOp39
 70
     1
102
RTVSPropertyOp40
 70
     1
102
RTVSPropertyOp41
 70
     1
102
RTVSPropertyOp42
 70
     1
102
RTVSPropertyOp43
 70
     1
102
RTVSPropertyOp44
 70
     1
102
RTVSPropertyOp45
 70
     1
102
RTVSPropertyOp46
 70
     1
102
RTVSPropertyOp47
 70
     1
102
RTVSPropertyOp48
 70
     1
102
RTVSPropertyOp49
 70
     1
102
RTVSPropertyOp50
 70
     1
102
RTVSPropertyOp51
 70
     0
102
RTVSPropertyOp52
 70
     0
102
RTVSPropertyOp53
 70
     1
102
RTVSPropertyOp54
 70
     1
102
RTVSPropertyOp55
 70
     1
102
RTVSPropertyOp56
 70
     1
102
RTVSPropertyOp57
 70
     1
102
RTVSPropertyOp58
 70
     1
102
RTVSPropertyOp59
 70
     1
102
RTVSPropertyOp60
 70
     1
102
RTVSPropertyOp61
 70
     1
102
RTVSPropertyOp62
 70
     1
  0
XRECORD
  5
1A10B
102
{ACAD_REACTORS
330
1A10A
102
}
330
1A10A
100
AcDbXrecord
280
     1
102
RTVSPost2010Prop28
280
     0
102
RTVSPost2010PropOp28
 70
     1
102
RTVSPost2010Prop29
280
     1
102
RTVSPost2010PropOp29
 70
     1
102
RTVSPost2010Prop30
280
     1
102
RTVSPost2010PropOp30
 70
     1
102
RTVSPost2010Prop31
280
     0
102
RTVSPost2010PropOp31
 70
     1
102
RTVSPost2010Prop32
280
     0
102
RTVSPost2010PropOp32
 70
     1
102
RTVSPost2010Prop33
280
     0
102
RTVSPost2010PropOp33
 70
     1
102
RTVSPost2010Prop34
280
     0
102
RTVSPost2010PropOp34
 70
     1
102
RTVSPost2010Prop35
280
     0
102
RTVSPost2010PropOp35
 70
     1
102
RTVSPost2010Prop36
280
     0
102
RTVSPost2010PropOp36
 70
     1
102
RTVSPost2010Prop37
 90
       50
102
RTVSPost2010PropOp37
 70
     1
102
RTVSPost2010Prop38
140
0.0
102
RTVSPost2010PropOp38
 70
     1
102
RTVSPost2010Prop39
140
1.0
102
RTVSPost2010PropOp39
 70
     1
102
RTVSPost2010Prop40
 90
        0
102
RTVSPost2010PropOp40
 70
     1
102
RTVSPost2010Prop41ColorIndex
 90
       18
102
RTVSPost2010Prop41ColorRGB
 90
        0
102
RTVSPost2010PropOp41
 70
     1
102
RTVSPost2010Prop42
 90
       50
102
RTVSPost2010PropOp42
 70
     1
102
RTVSPost2010Prop43
 90
        3
102
RTVSPost2010PropOp43
 70
     1
102
RTVSPost2010Prop44ColorIndex
 90
        5
102
RTVSPost2010Prop44ColorRGB
 90
      255
102
RTVSPost2010PropOp44
 70
     1
102
RTVSPost2010Prop45
280
     0
102
RTVSPost2010PropOp45
 70
     1
102
RTVSPost2010Prop46
 90
       50
102
RTVSPost2010PropOp46
 70
     1
102
RTVSPost2010Prop47
 90
       50
102
RTVSPost2010PropOp47
 70
     1
102
RTVSPost2010Prop48
 90
       50
102
RTVSPost2010PropOp48
 70
     1
102
RTVSPost2010Prop49
280
     0
102
RTVSPost2010PropOp49
 70
     1
102
RTVSPost2010Prop50
 90
       50
102
RTVSPost2010PropOp50
 70
     1
102
RTVSPost2010Prop51ColorIndex
 90
      256
102
RTVSPost2010Prop51ColorRGB
 90
-16777216
102
RTVSPost2010PropOp51
 70
     0
102
RTVSPost2010Prop52
140
1.0
102
RTVSPost2010PropOp52
 70
     0
102
RTVSPost2010Prop53
 90
        2
102
RTVSPost2010PropOp53
 70
     1
102
RTVSPost2010Prop54
  1
strokes_ogs.tif
102
RTVSPost2010PropOp54
 70
     1
102
RTVSPost2010Prop55
280
     0
102
RTVSPost2010PropOp55
 70
     1
102
RTVSPost2010Prop56
140
1.0
102
RTVSPost2010PropOp56
 70
     1
102
RTVSPost2010Prop57
140
1.0
102
RTVSPost2010PropOp57
 70
     1
102
RTVSPropertyOp0
 70
     1
102
RTVSPropertyOp1
 70
     1
102
RTVSPropertyOp2
 70
     1
102
RTVSPropertyOp3
 70
     1
102
RTVSPropertyOp4
 70
     1
102
RTVSPropertyOp5
 70
     1
102
RTVSPropertyOp6
 70
     1
102
RTVSPropertyOp7
 70
     1
102
RTVSPropertyOp8
 70
     1
102
RTVSPropertyOp9
 70
     1
102
RTVSPropertyOp10
 70
     1
102
RTVSPropertyOp11
 70
     1
102
RTVSPropertyOp12
 70
     1
102
RTVSPropertyOp13
 70
     1
102
RTVSPropertyOp14
 70
     1
102
RTVSPropertyOp15
 70
     1
102
RTVSPropertyOp16
 70
     1
102
RTVSPropertyOp17
 70
     1
102
RTVSPropertyOp18
 70
     1
102
RTVSPropertyOp19
 70
     1
102
RTVSPropertyOp20
 70
     1
102
RTVSPropertyOp21
 70
     1
102
RTVSPropertyOp22
 70
     1
102
RTVSPropertyOp23
 70
     1
102
RTVSPropertyOp24
 70
     1
102
RTVSPropertyOp25
 70
     1
102
RTVSPropertyOp26
 70
     1
102
RTVSPropertyOp27
 70
     1
102
RTVSPropertyOp28
 70
     1
102
RTVSPropertyOp29
 70
     1
102
RTVSPropertyOp30
 70
     1
102
RTVSPropertyOp31
 70
     1
102
RTVSPropertyOp32
 70
     1
102
RTVSPropertyOp33
 70
     1
102
RTVSPropertyOp34
 70
     1
102
RTVSPropertyOp35
 70
     1
102
RTVSPropertyOp36
 70
     1
102
RTVSPropertyOp37
 70
     1
102
RTVSPropertyOp38
 70
     1
102
RTVSPropertyOp39
 70
     1
102
RTVSPropertyOp40
 70
     1
102
RTVSPropertyOp41
 70
     1
102
RTVSPropertyOp42
 70
     1
102
RTVSPropertyOp43
 70
     1
102
RTVSPropertyOp44
 70
     1
102
RTVSPropertyOp45
 70
     1
102
RTVSPropertyOp46
 70
     1
102
RTVSPropertyOp47
 70
     1
102
RTVSPropertyOp48
 70
     1
102
RTVSPropertyOp49
 70
     1
102
RTVSPropertyOp50
 70
     1
102
RTVSPropertyOp51
 70
     0
102
RTVSPropertyOp52
 70
     0
102
RTVSPropertyOp53
 70
     1
102
RTVSPropertyOp54
 70
     1
102
RTVSPropertyOp55
 70
     1
102
RTVSPropertyOp56
 70
     1
102
RTVSPropertyOp57
 70
     1
102
RTVSPropertyOp58
 70
     1
102
RTVSPropertyOp59
 70
     1
102
RTVSPropertyOp60
 70
     1
102
RTVSPropertyOp61
 70
     1
102
RTVSPropertyOp62
 70
     1
  0
XRECORD
  5
1A10D
102
{ACAD_REACTORS
330
1A10C
102
}
330
1A10C
100
AcDbXrecord
280
     1
102
RTVSPost2010Prop28
280
     0
102
RTVSPost2010PropOp28
 70
     1
102
RTVSPost2010Prop29
280
     1
102
RTVSPost2010PropOp29
 70
     1
102
RTVSPost2010Prop30
280
     1
102
RTVSPost2010PropOp30
 70
     1
102
RTVSPost2010Prop31
280
     0
102
RTVSPost2010PropOp31
 70
     1
102
RTVSPost2010Prop32
280
     0
102
RTVSPost2010PropOp32
 70
     1
102
RTVSPost2010Prop33
280
     0
102
RTVSPost2010PropOp33
 70
     1
102
RTVSPost2010Prop34
280
     0
102
RTVSPost2010PropOp34
 70
     1
102
RTVSPost2010Prop35
280
     0
102
RTVSPost2010PropOp35
 70
     1
102
RTVSPost2010Prop36
280
     0
102
RTVSPost2010PropOp36
 70
     1
102
RTVSPost2010Prop37
 90
       50
102
RTVSPost2010PropOp37
 70
     1
102
RTVSPost2010Prop38
140
0.0
102
RTVSPost2010PropOp38
 70
     1
102
RTVSPost2010Prop39
140
1.0
102
RTVSPost2010PropOp39
 70
     1
102
RTVSPost2010Prop40
 90
        0
102
RTVSPost2010PropOp40
 70
     1
102
RTVSPost2010Prop41ColorIndex
 90
       18
102
RTVSPost2010Prop41ColorRGB
 90
        0
102
RTVSPost2010PropOp41
 70
     1
102
RTVSPost2010Prop42
 90
       50
102
RTVSPost2010PropOp42
 70
     1
102
RTVSPost2010Prop43
 90
        3
102
RTVSPost2010PropOp43
 70
     1
102
RTVSPost2010Prop44ColorIndex
 90
        5
102
RTVSPost2010Prop44ColorRGB
 90
      255
102
RTVSPost2010PropOp44
 70
     1
102
RTVSPost2010Prop45
280
     0
102
RTVSPost2010PropOp45
 70
     1
102
RTVSPost2010Prop46
 90
       50
102
RTVSPost2010PropOp46
 70
     1
102
RTVSPost2010Prop47
 90
       50
102
RTVSPost2010PropOp47
 70
     1
102
RTVSPost2010Prop48
 90
       50
102
RTVSPost2010PropOp48
 70
     1
102
RTVSPost2010Prop49
280
     0
102
RTVSPost2010PropOp49
 70
     1
102
RTVSPost2010Prop50
 90
       50
102
RTVSPost2010PropOp50
 70
     1
102
RTVSPost2010Prop51ColorIndex
 90
      256
102
RTVSPost2010Prop51ColorRGB
 90
-16777216
102
RTVSPost2010PropOp51
 70
     0
102
RTVSPost2010Prop52
140
1.0
102
RTVSPost2010PropOp52
 70
     0
102
RTVSPost2010Prop53
 90
        2
102
RTVSPost2010PropOp53
 70
     1
102
RTVSPost2010Prop54
  1
strokes_ogs.tif
102
RTVSPost2010PropOp54
 70
     1
102
RTVSPost2010Prop55
280
     0
102
RTVSPost2010PropOp55
 70
     1
102
RTVSPost2010Prop56
140
1.0
102
RTVSPost2010PropOp56
 70
     1
102
RTVSPost2010Prop57
140
1.0
102
RTVSPost2010PropOp57
 70
     1
102
RTVSPropertyOp0
 70
     1
102
RTVSPropertyOp1
 70
     1
102
RTVSPropertyOp2
 70
     1
102
RTVSPropertyOp3
 70
     1
102
RTVSPropertyOp4
 70
     1
102
RTVSPropertyOp5
 70
     1
102
RTVSPropertyOp6
 70
     1
102
RTVSPropertyOp7
 70
     1
102
RTVSPropertyOp8
 70
     1
102
RTVSPropertyOp9
 70
     1
102
RTVSPropertyOp10
 70
     1
102
RTVSPropertyOp11
 70
     1
102
RTVSPropertyOp12
 70
     1
102
RTVSPropertyOp13
 70
     1
102
RTVSPropertyOp14
 70
     1
102
RTVSPropertyOp15
 70
     1
102
RTVSPropertyOp16
 70
     1
102
RTVSPropertyOp17
 70
     1
102
RTVSPropertyOp18
 70
     1
102
RTVSPropertyOp19
 70
     1
102
RTVSPropertyOp20
 70
     1
102
RTVSPropertyOp21
 70
     1
102
RTVSPropertyOp22
 70
     1
102
RTVSPropertyOp23
 70
     1
102
RTVSPropertyOp24
 70
     1
102
RTVSPropertyOp25
 70
     1
102
RTVSPropertyOp26
 70
     1
102
RTVSPropertyOp27
 70
     1
102
RTVSPropertyOp28
 70
     1
102
RTVSPropertyOp29
 70
     1
102
RTVSPropertyOp30
 70
     1
102
RTVSPropertyOp31
 70
     1
102
RTVSPropertyOp32
 70
     1
102
RTVSPropertyOp33
 70
     1
102
RTVSPropertyOp34
 70
     1
102
RTVSPropertyOp35
 70
     1
102
RTVSPropertyOp36
 70
     1
102
RTVSPropertyOp37
 70
     1
102
RTVSPropertyOp38
 70
     1
102
RTVSPropertyOp39
 70
     1
102
RTVSPropertyOp40
 70
     1
102
RTVSPropertyOp41
 70
     1
102
RTVSPropertyOp42
 70
     1
102
RTVSPropertyOp43
 70
     1
102
RTVSPropertyOp44
 70
     1
102
RTVSPropertyOp45
 70
     1
102
RTVSPropertyOp46
 70
     1
102
RTVSPropertyOp47
 70
     1
102
RTVSPropertyOp48
 70
     1
102
RTVSPropertyOp49
 70
     1
102
RTVSPropertyOp50
 70
     1
102
RTVSPropertyOp51
 70
     0
102
RTVSPropertyOp52
 70
     0
102
RTVSPropertyOp53
 70
     1
102
RTVSPropertyOp54
 70
     1
102
RTVSPropertyOp55
 70
     1
102
RTVSPropertyOp56
 70
     1
102
RTVSPropertyOp57
 70
     1
102
RTVSPropertyOp58
 70
     1
102
RTVSPropertyOp59
 70
     1
102
RTVSPropertyOp60
 70
     1
102
RTVSPropertyOp61
 70
     1
102
RTVSPropertyOp62
 70
     1
  0
XRECORD
  5
1A10F
102
{ACAD_REACTORS
330
1A10E
102
}
330
1A10E
100
AcDbXrecord
280
     1
102
RTVSPost2010Prop28
280
     0
102
RTVSPost2010PropOp28
 70
     1
102
RTVSPost2010Prop29
280
     1
102
RTVSPost2010PropOp29
 70
     1
102
RTVSPost2010Prop30
280
     1
102
RTVSPost2010PropOp30
 70
     1
102
RTVSPost2010Prop31
280
     0
102
RTVSPost2010PropOp31
 70
     1
102
RTVSPost2010Prop32
280
     0
102
RTVSPost2010PropOp32
 70
     1
102
RTVSPost2010Prop33
280
     0
102
RTVSPost2010PropOp33
 70
     1
102
RTVSPost2010Prop34
280
     0
102
RTVSPost2010PropOp34
 70
     1
102
RTVSPost2010Prop35
280
     0
102
RTVSPost2010PropOp35
 70
     1
102
RTVSPost2010Prop36
280
     0
102
RTVSPost2010PropOp36
 70
     1
102
RTVSPost2010Prop37
 90
       50
102
RTVSPost2010PropOp37
 70
     1
102
RTVSPost2010Prop38
140
0.0
102
RTVSPost2010PropOp38
 70
     1
102
RTVSPost2010Prop39
140
1.0
102
RTVSPost2010PropOp39
 70
     1
102
RTVSPost2010Prop40
 90
        0
102
RTVSPost2010PropOp40
 70
     1
102
RTVSPost2010Prop41ColorIndex
 90
       18
102
RTVSPost2010Prop41ColorRGB
 90
        0
102
RTVSPost2010PropOp41
 70
     1
102
RTVSPost2010Prop42
 90
       50
102
RTVSPost2010PropOp42
 70
     1
102
RTVSPost2010Prop43
 90
        3
102
RTVSPost2010PropOp43
 70
     1
102
RTVSPost2010Prop44ColorIndex
 90
        5
102
RTVSPost2010Prop44ColorRGB
 90
      255
102
RTVSPost2010PropOp44
 70
     1
102
RTVSPost2010Prop45
280
     0
102
RTVSPost2010PropOp45
 70
     1
102
RTVSPost2010Prop46
 90
       50
102
RTVSPost2010PropOp46
 70
     1
102
RTVSPost2010Prop47
 90
       50
102
RTVSPost2010PropOp47
 70
     1
102
RTVSPost2010Prop48
 90
       50
102
RTVSPost2010PropOp48
 70
     1
102
RTVSPost2010Prop49
280
     0
102
RTVSPost2010PropOp49
 70
     1
102
RTVSPost2010Prop50
 90
       50
102
RTVSPost2010PropOp50
 70
     1
102
RTVSPost2010Prop51ColorIndex
 90
      256
102
RTVSPost2010Prop51ColorRGB
 90
-16777216
102
RTVSPost2010PropOp51
 70
     0
102
RTVSPost2010Prop52
140
1.0
102
RTVSPost2010PropOp52
 70
     0
102
RTVSPost2010Prop53
 90
        2
102
RTVSPost2010PropOp53
 70
     1
102
RTVSPost2010Prop54
  1
strokes_ogs.tif
102
RTVSPost2010PropOp54
 70
     1
102
RTVSPost2010Prop55
280
     0
102
RTVSPost2010PropOp55
 70
     1
102
RTVSPost2010Prop56
140
1.0
102
RTVSPost2010PropOp56
 70
     1
102
RTVSPost2010Prop57
140
1.0
102
RTVSPost2010PropOp57
 70
     1
102
RTVSPropertyOp0
 70
     1
102
RTVSPropertyOp1
 70
     1
102
RTVSPropertyOp2
 70
     1
102
RTVSPropertyOp3
 70
     1
102
RTVSPropertyOp4
 70
     1
102
RTVSPropertyOp5
 70
     1
102
RTVSPropertyOp6
 70
     1
102
RTVSPropertyOp7
 70
     1
102
RTVSPropertyOp8
 70
     1
102
RTVSPropertyOp9
 70
     1
102
RTVSPropertyOp10
 70
     1
102
RTVSPropertyOp11
 70
     1
102
RTVSPropertyOp12
 70
     1
102
RTVSPropertyOp13
 70
     1
102
RTVSPropertyOp14
 70
     1
102
RTVSPropertyOp15
 70
     1
102
RTVSPropertyOp16
 70
     1
102
RTVSPropertyOp17
 70
     1
102
RTVSPropertyOp18
 70
     1
102
RTVSPropertyOp19
 70
     1
102
RTVSPropertyOp20
 70
     1
102
RTVSPropertyOp21
 70
     1
102
RTVSPropertyOp22
 70
     1
102
RTVSPropertyOp23
 70
     1
102
RTVSPropertyOp24
 70
     1
102
RTVSPropertyOp25
 70
     1
102
RTVSPropertyOp26
 70
     1
102
RTVSPropertyOp27
 70
     1
102
RTVSPropertyOp28
 70
     1
102
RTVSPropertyOp29
 70
     1
102
RTVSPropertyOp30
 70
     1
102
RTVSPropertyOp31
 70
     1
102
RTVSPropertyOp32
 70
     1
102
RTVSPropertyOp33
 70
     1
102
RTVSPropertyOp34
 70
     1
102
RTVSPropertyOp35
 70
     1
102
RTVSPropertyOp36
 70
     1
102
RTVSPropertyOp37
 70
     1
102
RTVSPropertyOp38
 70
     1
102
RTVSPropertyOp39
 70
     1
102
RTVSPropertyOp40
 70
     1
102
RTVSPropertyOp41
 70
     1
102
RTVSPropertyOp42
 70
     1
102
RTVSPropertyOp43
 70
     1
102
RTVSPropertyOp44
 70
     1
102
RTVSPropertyOp45
 70
     1
102
RTVSPropertyOp46
 70
     1
102
RTVSPropertyOp47
 70
     1
102
RTVSPropertyOp48
 70
     1
102
RTVSPropertyOp49
 70
     1
102
RTVSPropertyOp50
 70
     1
102
RTVSPropertyOp51
 70
     0
102
RTVSPropertyOp52
 70
     0
102
RTVSPropertyOp53
 70
     1
102
RTVSPropertyOp54
 70
     1
102
RTVSPropertyOp55
 70
     1
102
RTVSPropertyOp56
 70
     1
102
RTVSPropertyOp57
 70
     1
102
RTVSPropertyOp58
 70
     1
102
RTVSPropertyOp59
 70
     1
102
RTVSPropertyOp60
 70
     1
102
RTVSPropertyOp61
 70
     1
102
RTVSPropertyOp62
 70
     1
  0
XRECORD
  5
1A117
102
{ACAD_REACTORS
330
1A116
102
}
330
1A116
100
AcDbXrecord
280
     1
102
RTVSPost2010Prop28
280
     0
102
RTVSPost2010PropOp28
 70
     1
102
RTVSPost2010Prop29
280
     1
102
RTVSPost2010PropOp29
 70
     1
102
RTVSPost2010Prop30
280
     1
102
RTVSPost2010PropOp30
 70
     1
102
RTVSPost2010Prop31
280
     0
102
RTVSPost2010PropOp31
 70
     1
102
RTVSPost2010Prop32
280
     0
102
RTVSPost2010PropOp32
 70
     1
102
RTVSPost2010Prop33
280
     0
102
RTVSPost2010PropOp33
 70
     1
102
RTVSPost2010Prop34
280
     0
102
RTVSPost2010PropOp34
 70
     1
102
RTVSPost2010Prop35
280
     0
102
RTVSPost2010PropOp35
 70
     1
102
RTVSPost2010Prop36
280
     0
102
RTVSPost2010PropOp36
 70
     1
102
RTVSPost2010Prop37
 90
       50
102
RTVSPost2010PropOp37
 70
     1
102
RTVSPost2010Prop38
140
0.0
102
RTVSPost2010PropOp38
 70
     1
102
RTVSPost2010Prop39
140
1.0
102
RTVSPost2010PropOp39
 70
     1
102
RTVSPost2010Prop40
 90
        0
102
RTVSPost2010PropOp40
 70
     1
102
RTVSPost2010Prop41ColorIndex
 90
       18
102
RTVSPost2010Prop41ColorRGB
 90
        0
102
RTVSPost2010PropOp41
 70
     1
102
RTVSPost2010Prop42
 90
       50
102
RTVSPost2010PropOp42
 70
     1
102
RTVSPost2010Prop43
 90
        3
102
RTVSPost2010PropOp43
 70
     1
102
RTVSPost2010Prop44ColorIndex
 90
        5
102
RTVSPost2010Prop44ColorRGB
 90
      255
102
RTVSPost2010PropOp44
 70
     1
102
RTVSPost2010Prop45
280
     0
102
RTVSPost2010PropOp45
 70
     1
102
RTVSPost2010Prop46
 90
       50
102
RTVSPost2010PropOp46
 70
     1
102
RTVSPost2010Prop47
 90
       50
102
RTVSPost2010PropOp47
 70
     1
102
RTVSPost2010Prop48
 90
       50
102
RTVSPost2010PropOp48
 70
     1
102
RTVSPost2010Prop49
280
     0
102
RTVSPost2010PropOp49
 70
     1
102
RTVSPost2010Prop50
 90
       50
102
RTVSPost2010PropOp50
 70
     1
102
RTVSPost2010Prop51ColorIndex
 90
      256
102
RTVSPost2010Prop51ColorRGB
 90
-16777216
102
RTVSPost2010PropOp51
 70
     0
102
RTVSPost2010Prop52
140
1.0
102
RTVSPost2010PropOp52
 70
     0
102
RTVSPost2010Prop53
 90
        2
102
RTVSPost2010PropOp53
 70
     1
102
RTVSPost2010Prop54
  1
strokes_ogs.tif
102
RTVSPost2010PropOp54
 70
     1
102
RTVSPost2010Prop55
280
     0
102
RTVSPost2010PropOp55
 70
     1
102
RTVSPost2010Prop56
140
1.0
102
RTVSPost2010PropOp56
 70
     1
102
RTVSPost2010Prop57
140
1.0
102
RTVSPost2010PropOp57
 70
     1
102
RTVSPropertyOp0
 70
     1
102
RTVSPropertyOp1
 70
     1
102
RTVSPropertyOp2
 70
     1
102
RTVSPropertyOp3
 70
     1
102
RTVSPropertyOp4
 70
     1
102
RTVSPropertyOp5
 70
     1
102
RTVSPropertyOp6
 70
     1
102
RTVSPropertyOp7
 70
     1
102
RTVSPropertyOp8
 70
     1
102
RTVSPropertyOp9
 70
     1
102
RTVSPropertyOp10
 70
     1
102
RTVSPropertyOp11
 70
     1
102
RTVSPropertyOp12
 70
     1
102
RTVSPropertyOp13
 70
     1
102
RTVSPropertyOp14
 70
     1
102
RTVSPropertyOp15
 70
     1
102
RTVSPropertyOp16
 70
     1
102
RTVSPropertyOp17
 70
     1
102
RTVSPropertyOp18
 70
     1
102
RTVSPropertyOp19
 70
     1
102
RTVSPropertyOp20
 70
     1
102
RTVSPropertyOp21
 70
     1
102
RTVSPropertyOp22
 70
     1
102
RTVSPropertyOp23
 70
     1
102
RTVSPropertyOp24
 70
     1
102
RTVSPropertyOp25
 70
     1
102
RTVSPropertyOp26
 70
     1
102
RTVSPropertyOp27
 70
     1
102
RTVSPropertyOp28
 70
     1
102
RTVSPropertyOp29
 70
     1
102
RTVSPropertyOp30
 70
     1
102
RTVSPropertyOp31
 70
     1
102
RTVSPropertyOp32
 70
     1
102
RTVSPropertyOp33
 70
     1
102
RTVSPropertyOp34
 70
     1
102
RTVSPropertyOp35
 70
     1
102
RTVSPropertyOp36
 70
     1
102
RTVSPropertyOp37
 70
     1
102
RTVSPropertyOp38
 70
     1
102
RTVSPropertyOp39
 70
     1
102
RTVSPropertyOp40
 70
     1
102
RTVSPropertyOp41
 70
     1
102
RTVSPropertyOp42
 70
     1
102
RTVSPropertyOp43
 70
     1
102
RTVSPropertyOp44
 70
     1
102
RTVSPropertyOp45
 70
     1
102
RTVSPropertyOp46
 70
     1
102
RTVSPropertyOp47
 70
     1
102
RTVSPropertyOp48
 70
     1
102
RTVSPropertyOp49
 70
     1
102
RTVSPropertyOp50
 70
     1
102
RTVSPropertyOp51
 70
     0
102
RTVSPropertyOp52
 70
     0
102
RTVSPropertyOp53
 70
     1
102
RTVSPropertyOp54
 70
     1
102
RTVSPropertyOp55
 70
     1
102
RTVSPropertyOp56
 70
     1
102
RTVSPropertyOp57
 70
     1
102
RTVSPropertyOp58
 70
     1
102
RTVSPropertyOp59
 70
     1
102
RTVSPropertyOp60
 70
     1
102
RTVSPropertyOp61
 70
     1
102
RTVSPropertyOp62
 70
     1
  0
XRECORD
  5
1A12B
102
{ACAD_REACTORS
330
1A12A
102
}
330
1A12A
100
AcDbXrecord
280
     1
102
RTVSPost2010Prop28
280
     0
102
RTVSPost2010PropOp28
 70
     1
102
RTVSPost2010Prop29
280
     1
102
RTVSPost2010PropOp29
 70
     1
102
RTVSPost2010Prop30
280
     1
102
RTVSPost2010PropOp30
 70
     1
102
RTVSPost2010Prop31
280
     0
102
RTVSPost2010PropOp31
 70
     1
102
RTVSPost2010Prop32
280
     0
102
RTVSPost2010PropOp32
 70
     1
102
RTVSPost2010Prop33
280
     0
102
RTVSPost2010PropOp33
 70
     1
102
RTVSPost2010Prop34
280
     0
102
RTVSPost2010PropOp34
 70
     1
102
RTVSPost2010Prop35
280
     0
102
RTVSPost2010PropOp35
 70
     1
102
RTVSPost2010Prop36
280
     0
102
RTVSPost2010PropOp36
 70
     1
102
RTVSPost2010Prop37
 90
       50
102
RTVSPost2010PropOp37
 70
     1
102
RTVSPost2010Prop38
140
0.0
102
RTVSPost2010PropOp38
 70
     1
102
RTVSPost2010Prop39
140
1.0
102
RTVSPost2010PropOp39
 70
     1
102
RTVSPost2010Prop40
 90
        0
102
RTVSPost2010PropOp40
 70
     1
102
RTVSPost2010Prop41ColorIndex
 90
       18
102
RTVSPost2010Prop41ColorRGB
 90
        0
102
RTVSPost2010PropOp41
 70
     1
102
RTVSPost2010Prop42
 90
       50
102
RTVSPost2010PropOp42
 70
     1
102
RTVSPost2010Prop43
 90
        3
102
RTVSPost2010PropOp43
 70
     1
102
RTVSPost2010Prop44ColorIndex
 90
        5
102
RTVSPost2010Prop44ColorRGB
 90
      255
102
RTVSPost2010PropOp44
 70
     1
102
RTVSPost2010Prop45
280
     0
102
RTVSPost2010PropOp45
 70
     1
102
RTVSPost2010Prop46
 90
       50
102
RTVSPost2010PropOp46
 70
     1
102
RTVSPost2010Prop47
 90
       50
102
RTVSPost2010PropOp47
 70
     1
102
RTVSPost2010Prop48
 90
       50
102
RTVSPost2010PropOp48
 70
     1
102
RTVSPost2010Prop49
280
     0
102
RTVSPost2010PropOp49
 70
     1
102
RTVSPost2010Prop50
 90
       50
102
RTVSPost2010PropOp50
 70
     1
102
RTVSPost2010Prop51ColorIndex
 90
      256
102
RTVSPost2010Prop51ColorRGB
 90
-16777216
102
RTVSPost2010PropOp51
 70
     0
102
RTVSPost2010Prop52
140
1.0
102
RTVSPost2010PropOp52
 70
     0
102
RTVSPost2010Prop53
 90
        2
102
RTVSPost2010PropOp53
 70
     1
102
RTVSPost2010Prop54
  1
strokes_ogs.tif
102
RTVSPost2010PropOp54
 70
     1
102
RTVSPost2010Prop55
280
     0
102
RTVSPost2010PropOp55
 70
     1
102
RTVSPost2010Prop56
140
1.0
102
RTVSPost2010PropOp56
 70
     1
102
RTVSPost2010Prop57
140
1.0
102
RTVSPost2010PropOp57
 70
     1
102
RTVSPropertyOp0
 70
     0
102
RTVSPropertyOp1
 70
     0
102
RTVSPropertyOp2
 70
     0
102
RTVSPropertyOp3
 70
     0
102
RTVSPropertyOp4
 70
     0
102
RTVSPropertyOp5
 70
     0
102
RTVSPropertyOp6
 70
     0
102
RTVSPropertyOp7
 70
     0
102
RTVSPropertyOp8
 70
     0
102
RTVSPropertyOp9
 70
     0
102
RTVSPropertyOp10
 70
     0
102
RTVSPropertyOp11
 70
     0
102
RTVSPropertyOp12
 70
     0
102
RTVSPropertyOp13
 70
     0
102
RTVSPropertyOp14
 70
     2
102
RTVSPropertyOp15
 70
     0
102
RTVSPropertyOp16
 70
     0
102
RTVSPropertyOp17
 70
     0
102
RTVSPropertyOp18
 70
     0
102
RTVSPropertyOp19
 70
     0
102
RTVSPropertyOp20
 70
     0
102
RTVSPropertyOp21
 70
     0
102
RTVSPropertyOp22
 70
     0
102
RTVSPropertyOp23
 70
     0
102
RTVSPropertyOp24
 70
     0
102
RTVSPropertyOp25
 70
     0
102
RTVSPropertyOp26
 70
     0
102
RTVSPropertyOp27
 70
     0
102
RTVSPropertyOp28
 70
     1
102
RTVSPropertyOp29
 70
     1
102
RTVSPropertyOp30
 70
     1
102
RTVSPropertyOp31
 70
     1
102
RTVSPropertyOp32
 70
     1
102
RTVSPropertyOp33
 70
     1
102
RTVSPropertyOp34
 70
     1
102
RTVSPropertyOp35
 70
     1
102
RTVSPropertyOp36
 70
     1
102
RTVSPropertyOp37
 70
     1
102
RTVSPropertyOp38
 70
     1
102
RTVSPropertyOp39
 70
     1
102
RTVSPropertyOp40
 70
     1
102
RTVSPropertyOp41
 70
     1
102
RTVSPropertyOp42
 70
     1
102
RTVSPropertyOp43
 70
     1
102
RTVSPropertyOp44
 70
     1
102
RTVSPropertyOp45
 70
     1
102
RTVSPropertyOp46
 70
     1
102
RTVSPropertyOp47
 70
     1
102
RTVSPropertyOp48
 70
     1
102
RTVSPropertyOp49
 70
     1
102
RTVSPropertyOp50
 70
     1
102
RTVSPropertyOp51
 70
     0
102
RTVSPropertyOp52
 70
     0
102
RTVSPropertyOp53
 70
     1
102
RTVSPropertyOp54
 70
     1
102
RTVSPropertyOp55
 70
     1
102
RTVSPropertyOp56
 70
     1
102
RTVSPropertyOp57
 70
     1
102
RTVSPropertyOp58
 70
     1
102
RTVSPropertyOp59
 70
     1
102
RTVSPropertyOp60
 70
     1
102
RTVSPropertyOp61
 70
     1
102
RTVSPropertyOp62
 70
     1
  0
XRECORD
  5
1A123
102
{ACAD_REACTORS
330
1A122
102
}
330
1A122
100
AcDbXrecord
280
     1
102
RTVSPost2010Prop28
280
     0
102
RTVSPost2010PropOp28
 70
     1
102
RTVSPost2010Prop29
280
     1
102
RTVSPost2010PropOp29
 70
     1
102
RTVSPost2010Prop30
280
     1
102
RTVSPost2010PropOp30
 70
     1
102
RTVSPost2010Prop31
280
     0
102
RTVSPost2010PropOp31
 70
     1
102
RTVSPost2010Prop32
280
     0
102
RTVSPost2010PropOp32
 70
     1
102
RTVSPost2010Prop33
280
     0
102
RTVSPost2010PropOp33
 70
     1
102
RTVSPost2010Prop34
280
     0
102
RTVSPost2010PropOp34
 70
     1
102
RTVSPost2010Prop35
280
     0
102
RTVSPost2010PropOp35
 70
     1
102
RTVSPost2010Prop36
280
     0
102
RTVSPost2010PropOp36
 70
     1
102
RTVSPost2010Prop37
 90
       50
102
RTVSPost2010PropOp37
 70
     1
102
RTVSPost2010Prop38
140
0.0
102
RTVSPost2010PropOp38
 70
     1
102
RTVSPost2010Prop39
140
1.0
102
RTVSPost2010PropOp39
 70
     1
102
RTVSPost2010Prop40
 90
        0
102
RTVSPost2010PropOp40
 70
     1
102
RTVSPost2010Prop41ColorIndex
 90
       18
102
RTVSPost2010Prop41ColorRGB
 90
        0
102
RTVSPost2010PropOp41
 70
     1
102
RTVSPost2010Prop42
 90
       50
102
RTVSPost2010PropOp42
 70
     1
102
RTVSPost2010Prop43
 90
        3
102
RTVSPost2010PropOp43
 70
     1
102
RTVSPost2010Prop44ColorIndex
 90
        5
102
RTVSPost2010Prop44ColorRGB
 90
      255
102
RTVSPost2010PropOp44
 70
     1
102
RTVSPost2010Prop45
280
     0
102
RTVSPost2010PropOp45
 70
     1
102
RTVSPost2010Prop46
 90
       50
102
RTVSPost2010PropOp46
 70
     1
102
RTVSPost2010Prop47
 90
       50
102
RTVSPost2010PropOp47
 70
     1
102
RTVSPost2010Prop48
 90
       50
102
RTVSPost2010PropOp48
 70
     1
102
RTVSPost2010Prop49
280
     0
102
RTVSPost2010PropOp49
 70
     1
102
RTVSPost2010Prop50
 90
       50
102
RTVSPost2010PropOp50
 70
     1
102
RTVSPost2010Prop51ColorIndex
 90
      256
102
RTVSPost2010Prop51ColorRGB
 90
-16777216
102
RTVSPost2010PropOp51
 70
     0
102
RTVSPost2010Prop52
140
1.0
102
RTVSPost2010PropOp52
 70
     0
102
RTVSPost2010Prop53
 90
        2
102
RTVSPost2010PropOp53
 70
     1
102
RTVSPost2010Prop54
  1
strokes_ogs.tif
102
RTVSPost2010PropOp54
 70
     1
102
RTVSPost2010Prop55
280
     0
102
RTVSPost2010PropOp55
 70
     1
102
RTVSPost2010Prop56
140
1.0
102
RTVSPost2010PropOp56
 70
     1
102
RTVSPost2010Prop57
140
1.0
102
RTVSPost2010PropOp57
 70
     1
102
RTVSPropertyOp0
 70
     1
102
RTVSPropertyOp1
 70
     1
102
RTVSPropertyOp2
 70
     1
102
RTVSPropertyOp3
 70
     1
102
RTVSPropertyOp4
 70
     1
102
RTVSPropertyOp5
 70
     1
102
RTVSPropertyOp6
 70
     1
102
RTVSPropertyOp7
 70
     1
102
RTVSPropertyOp8
 70
     1
102
RTVSPropertyOp9
 70
     1
102
RTVSPropertyOp10
 70
     1
102
RTVSPropertyOp11
 70
     1
102
RTVSPropertyOp12
 70
     1
102
RTVSPropertyOp13
 70
     1
102
RTVSPropertyOp14
 70
     1
102
RTVSPropertyOp15
 70
     1
102
RTVSPropertyOp16
 70
     1
102
RTVSPropertyOp17
 70
     1
102
RTVSPropertyOp18
 70
     1
102
RTVSPropertyOp19
 70
     1
102
RTVSPropertyOp20
 70
     1
102
RTVSPropertyOp21
 70
     1
102
RTVSPropertyOp22
 70
     1
102
RTVSPropertyOp23
 70
     1
102
RTVSPropertyOp24
 70
     1
102
RTVSPropertyOp25
 70
     1
102
RTVSPropertyOp26
 70
     1
102
RTVSPropertyOp27
 70
     1
102
RTVSPropertyOp28
 70
     1
102
RTVSPropertyOp29
 70
     1
102
RTVSPropertyOp30
 70
     1
102
RTVSPropertyOp31
 70
     1
102
RTVSPropertyOp32
 70
     1
102
RTVSPropertyOp33
 70
     1
102
RTVSPropertyOp34
 70
     1
102
RTVSPropertyOp35
 70
     1
102
RTVSPropertyOp36
 70
     1
102
RTVSPropertyOp37
 70
     1
102
RTVSPropertyOp38
 70
     1
102
RTVSPropertyOp39
 70
     1
102
RTVSPropertyOp40
 70
     1
102
RTVSPropertyOp41
 70
     1
102
RTVSPropertyOp42
 70
     1
102
RTVSPropertyOp43
 70
     1
102
RTVSPropertyOp44
 70
     1
102
RTVSPropertyOp45
 70
     1
102
RTVSPropertyOp46
 70
     1
102
RTVSPropertyOp47
 70
     1
102
RTVSPropertyOp48
 70
     1
102
RTVSPropertyOp49
 70
     1
102
RTVSPropertyOp50
 70
     1
102
RTVSPropertyOp51
 70
     0
102
RTVSPropertyOp52
 70
     0
102
RTVSPropertyOp53
 70
     1
102
RTVSPropertyOp54
 70
     1
102
RTVSPropertyOp55
 70
     1
102
RTVSPropertyOp56
 70
     1
102
RTVSPropertyOp57
 70
     1
102
RTVSPropertyOp58
 70
     1
102
RTVSPropertyOp59
 70
     1
102
RTVSPropertyOp60
 70
     1
102
RTVSPropertyOp61
 70
     1
102
RTVSPropertyOp62
 70
     1
  0
XRECORD
  5
1A12D
102
{ACAD_REACTORS
330
1A12C
102
}
330
1A12C
100
AcDbXrecord
280
     1
102
RTVSPost2010Prop28
280
     0
102
RTVSPost2010PropOp28
 70
     1
102
RTVSPost2010Prop29
280
     1
102
RTVSPost2010PropOp29
 70
     1
102
RTVSPost2010Prop30
280
     1
102
RTVSPost2010PropOp30
 70
     1
102
RTVSPost2010Prop31
280
     0
102
RTVSPost2010PropOp31
 70
     1
102
RTVSPost2010Prop32
280
     0
102
RTVSPost2010PropOp32
 70
     1
102
RTVSPost2010Prop33
280
     0
102
RTVSPost2010PropOp33
 70
     1
102
RTVSPost2010Prop34
280
     0
102
RTVSPost2010PropOp34
 70
     1
102
RTVSPost2010Prop35
280
     0
102
RTVSPost2010PropOp35
 70
     1
102
RTVSPost2010Prop36
280
     0
102
RTVSPost2010PropOp36
 70
     1
102
RTVSPost2010Prop37
 90
       50
102
RTVSPost2010PropOp37
 70
     1
102
RTVSPost2010Prop38
140
0.0
102
RTVSPost2010PropOp38
 70
     1
102
RTVSPost2010Prop39
140
1.0
102
RTVSPost2010PropOp39
 70
     1
102
RTVSPost2010Prop40
 90
        0
102
RTVSPost2010PropOp40
 70
     1
102
RTVSPost2010Prop41ColorIndex
 90
       18
102
RTVSPost2010Prop41ColorRGB
 90
        0
102
RTVSPost2010PropOp41
 70
     1
102
RTVSPost2010Prop42
 90
       50
102
RTVSPost2010PropOp42
 70
     1
102
RTVSPost2010Prop43
 90
        3
102
RTVSPost2010PropOp43
 70
     1
102
RTVSPost2010Prop44ColorIndex
 90
        5
102
RTVSPost2010Prop44ColorRGB
 90
      255
102
RTVSPost2010PropOp44
 70
     1
102
RTVSPost2010Prop45
280
     0
102
RTVSPost2010PropOp45
 70
     1
102
RTVSPost2010Prop46
 90
       50
102
RTVSPost2010PropOp46
 70
     1
102
RTVSPost2010Prop47
 90
       50
102
RTVSPost2010PropOp47
 70
     1
102
RTVSPost2010Prop48
 90
       50
102
RTVSPost2010PropOp48
 70
     1
102
RTVSPost2010Prop49
280
     0
102
RTVSPost2010PropOp49
 70
     1
102
RTVSPost2010Prop50
 90
       50
102
RTVSPost2010PropOp50
 70
     1
102
RTVSPost2010Prop51ColorIndex
 90
      256
102
RTVSPost2010Prop51ColorRGB
 90
-16777216
102
RTVSPost2010PropOp51
 70
     0
102
RTVSPost2010Prop52
140
1.0
102
RTVSPost2010PropOp52
 70
     0
102
RTVSPost2010Prop53
 90
        2
102
RTVSPost2010PropOp53
 70
     1
102
RTVSPost2010Prop54
  1
strokes_ogs.tif
102
RTVSPost2010PropOp54
 70
     1
102
RTVSPost2010Prop55
280
     0
102
RTVSPost2010PropOp55
 70
     1
102
RTVSPost2010Prop56
140
1.0
102
RTVSPost2010PropOp56
 70
     1
102
RTVSPost2010Prop57
140
1.0
102
RTVSPost2010PropOp57
 70
     1
102
RTVSPropertyOp0
 70
     0
102
RTVSPropertyOp1
 70
     0
102
RTVSPropertyOp2
 70
     0
102
RTVSPropertyOp3
 70
     0
102
RTVSPropertyOp4
 70
     0
102
RTVSPropertyOp5
 70
     0
102
RTVSPropertyOp6
 70
     0
102
RTVSPropertyOp7
 70
     0
102
RTVSPropertyOp8
 70
     0
102
RTVSPropertyOp9
 70
     0
102
RTVSPropertyOp10
 70
     0
102
RTVSPropertyOp11
 70
     0
102
RTVSPropertyOp12
 70
     0
102
RTVSPropertyOp13
 70
     0
102
RTVSPropertyOp14
 70
     2
102
RTVSPropertyOp15
 70
     0
102
RTVSPropertyOp16
 70
     0
102
RTVSPropertyOp17
 70
     0
102
RTVSPropertyOp18
 70
     0
102
RTVSPropertyOp19
 70
     0
102
RTVSPropertyOp20
 70
     0
102
RTVSPropertyOp21
 70
     0
102
RTVSPropertyOp22
 70
     0
102
RTVSPropertyOp23
 70
     0
102
RTVSPropertyOp24
 70
     0
102
RTVSPropertyOp25
 70
     0
102
RTVSPropertyOp26
 70
     0
102
RTVSPropertyOp27
 70
     0
102
RTVSPropertyOp28
 70
     1
102
RTVSPropertyOp29
 70
     1
102
RTVSPropertyOp30
 70
     1
102
RTVSPropertyOp31
 70
     1
102
RTVSPropertyOp32
 70
     1
102
RTVSPropertyOp33
 70
     1
102
RTVSPropertyOp34
 70
     1
102
RTVSPropertyOp35
 70
     1
102
RTVSPropertyOp36
 70
     1
102
RTVSPropertyOp37
 70
     1
102
RTVSPropertyOp38
 70
     1
102
RTVSPropertyOp39
 70
     1
102
RTVSPropertyOp40
 70
     1
102
RTVSPropertyOp41
 70
     1
102
RTVSPropertyOp42
 70
     1
102
RTVSPropertyOp43
 70
     1
102
RTVSPropertyOp44
 70
     1
102
RTVSPropertyOp45
 70
     1
102
RTVSPropertyOp46
 70
     1
102
RTVSPropertyOp47
 70
     1
102
RTVSPropertyOp48
 70
     1
102
RTVSPropertyOp49
 70
     1
102
RTVSPropertyOp50
 70
     1
102
RTVSPropertyOp51
 70
     0
102
RTVSPropertyOp52
 70
     0
102
RTVSPropertyOp53
 70
     1
102
RTVSPropertyOp54
 70
     1
102
RTVSPropertyOp55
 70
     1
102
RTVSPropertyOp56
 70
     1
102
RTVSPropertyOp57
 70
     1
102
RTVSPropertyOp58
 70
     1
102
RTVSPropertyOp59
 70
     1
102
RTVSPropertyOp60
 70
     1
102
RTVSPropertyOp61
 70
     1
102
RTVSPropertyOp62
 70
     1
  0
XRECORD
  5
1A11B
102
{ACAD_REACTORS
330
1A11A
102
}
330
1A11A
100
AcDbXrecord
280
     1
102
RTVSPost2010Prop28
280
     0
102
RTVSPost2010PropOp28
 70
     1
102
RTVSPost2010Prop29
280
     1
102
RTVSPost2010PropOp29
 70
     1
102
RTVSPost2010Prop30
280
     1
102
RTVSPost2010PropOp30
 70
     1
102
RTVSPost2010Prop31
280
     0
102
RTVSPost2010PropOp31
 70
     1
102
RTVSPost2010Prop32
280
     0
102
RTVSPost2010PropOp32
 70
     1
102
RTVSPost2010Prop33
280
     0
102
RTVSPost2010PropOp33
 70
     1
102
RTVSPost2010Prop34
280
     0
102
RTVSPost2010PropOp34
 70
     1
102
RTVSPost2010Prop35
280
     0
102
RTVSPost2010PropOp35
 70
     1
102
RTVSPost2010Prop36
280
     0
102
RTVSPost2010PropOp36
 70
     1
102
RTVSPost2010Prop37
 90
       50
102
RTVSPost2010PropOp37
 70
     1
102
RTVSPost2010Prop38
140
0.0
102
RTVSPost2010PropOp38
 70
     1
102
RTVSPost2010Prop39
140
1.0
102
RTVSPost2010PropOp39
 70
     1
102
RTVSPost2010Prop40
 90
        0
102
RTVSPost2010PropOp40
 70
     1
102
RTVSPost2010Prop41ColorIndex
 90
       18
102
RTVSPost2010Prop41ColorRGB
 90
        0
102
RTVSPost2010PropOp41
 70
     1
102
RTVSPost2010Prop42
 90
       50
102
RTVSPost2010PropOp42
 70
     1
102
RTVSPost2010Prop43
 90
        3
102
RTVSPost2010PropOp43
 70
     1
102
RTVSPost2010Prop44ColorIndex
 90
        5
102
RTVSPost2010Prop44ColorRGB
 90
      255
102
RTVSPost2010PropOp44
 70
     1
102
RTVSPost2010Prop45
280
     0
102
RTVSPost2010PropOp45
 70
     1
102
RTVSPost2010Prop46
 90
       50
102
RTVSPost2010PropOp46
 70
     1
102
RTVSPost2010Prop47
 90
       50
102
RTVSPost2010PropOp47
 70
     1
102
RTVSPost2010Prop48
 90
       50
102
RTVSPost2010PropOp48
 70
     1
102
RTVSPost2010Prop49
280
     0
102
RTVSPost2010PropOp49
 70
     1
102
RTVSPost2010Prop50
 90
       50
102
RTVSPost2010PropOp50
 70
     1
102
RTVSPost2010Prop51ColorIndex
 90
      256
102
RTVSPost2010Prop51ColorRGB
 90
-16777216
102
RTVSPost2010PropOp51
 70
     0
102
RTVSPost2010Prop52
140
1.0
102
RTVSPost2010PropOp52
 70
     0
102
RTVSPost2010Prop53
 90
        2
102
RTVSPost2010PropOp53
 70
     1
102
RTVSPost2010Prop54
  1
strokes_ogs.tif
102
RTVSPost2010PropOp54
 70
     1
102
RTVSPost2010Prop55
280
     0
102
RTVSPost2010PropOp55
 70
     1
102
RTVSPost2010Prop56
140
1.0
102
RTVSPost2010PropOp56
 70
     1
102
RTVSPost2010Prop57
140
1.0
102
RTVSPost2010PropOp57
 70
     1
102
RTVSPropertyOp0
 70
     1
102
RTVSPropertyOp1
 70
     1
102
RTVSPropertyOp2
 70
     1
102
RTVSPropertyOp3
 70
     1
102
RTVSPropertyOp4
 70
     1
102
RTVSPropertyOp5
 70
     1
102
RTVSPropertyOp6
 70
     1
102
RTVSPropertyOp7
 70
     1
102
RTVSPropertyOp8
 70
     1
102
RTVSPropertyOp9
 70
     1
102
RTVSPropertyOp10
 70
     1
102
RTVSPropertyOp11
 70
     1
102
RTVSPropertyOp12
 70
     1
102
RTVSPropertyOp13
 70
     1
102
RTVSPropertyOp14
 70
     1
102
RTVSPropertyOp15
 70
     1
102
RTVSPropertyOp16
 70
     1
102
RTVSPropertyOp17
 70
     1
102
RTVSPropertyOp18
 70
     1
102
RTVSPropertyOp19
 70
     1
102
RTVSPropertyOp20
 70
     1
102
RTVSPropertyOp21
 70
     1
102
RTVSPropertyOp22
 70
     1
102
RTVSPropertyOp23
 70
     1
102
RTVSPropertyOp24
 70
     1
102
RTVSPropertyOp25
 70
     1
102
RTVSPropertyOp26
 70
     1
102
RTVSPropertyOp27
 70
     1
102
RTVSPropertyOp28
 70
     1
102
RTVSPropertyOp29
 70
     1
102
RTVSPropertyOp30
 70
     1
102
RTVSPropertyOp31
 70
     1
102
RTVSPropertyOp32
 70
     1
102
RTVSPropertyOp33
 70
     1
102
RTVSPropertyOp34
 70
     1
102
RTVSPropertyOp35
 70
     1
102
RTVSPropertyOp36
 70
     1
102
RTVSPropertyOp37
 70
     1
102
RTVSPropertyOp38
 70
     1
102
RTVSPropertyOp39
 70
     1
102
RTVSPropertyOp40
 70
     1
102
RTVSPropertyOp41
 70
     1
102
RTVSPropertyOp42
 70
     1
102
RTVSPropertyOp43
 70
     1
102
RTVSPropertyOp44
 70
     1
102
RTVSPropertyOp45
 70
     1
102
RTVSPropertyOp46
 70
     1
102
RTVSPropertyOp47
 70
     1
102
RTVSPropertyOp48
 70
     1
102
RTVSPropertyOp49
 70
     1
102
RTVSPropertyOp50
 70
     1
102
RTVSPropertyOp51
 70
     0
102
RTVSPropertyOp52
 70
     0
102
RTVSPropertyOp53
 70
     1
102
RTVSPropertyOp54
 70
     1
102
RTVSPropertyOp55
 70
     1
102
RTVSPropertyOp56
 70
     1
102
RTVSPropertyOp57
 70
     1
102
RTVSPropertyOp58
 70
     1
102
RTVSPropertyOp59
 70
     1
102
RTVSPropertyOp60
 70
     1
102
RTVSPropertyOp61
 70
     1
102
RTVSPropertyOp62
 70
     1
  0
XRECORD
  5
1A139
102
{ACAD_REACTORS
330
1A138
102
}
330
1A138
100
AcDbXrecord
280
     1
102
RTVSPost2010Prop28
280
     0
102
RTVSPost2010PropOp28
 70
     1
102
RTVSPost2010Prop29
280
     1
102
RTVSPost2010PropOp29
 70
     1
102
RTVSPost2010Prop30
280
     1
102
RTVSPost2010PropOp30
 70
     1
102
RTVSPost2010Prop31
280
     0
102
RTVSPost2010PropOp31
 70
     1
102
RTVSPost2010Prop32
280
     0
102
RTVSPost2010PropOp32
 70
     1
102
RTVSPost2010Prop33
280
     0
102
RTVSPost2010PropOp33
 70
     1
102
RTVSPost2010Prop34
280
     0
102
RTVSPost2010PropOp34
 70
     1
102
RTVSPost2010Prop35
280
     0
102
RTVSPost2010PropOp35
 70
     1
102
RTVSPost2010Prop36
280
     0
102
RTVSPost2010PropOp36
 70
     1
102
RTVSPost2010Prop37
 90
       50
102
RTVSPost2010PropOp37
 70
     1
102
RTVSPost2010Prop38
140
0.0
102
RTVSPost2010PropOp38
 70
     1
102
RTVSPost2010Prop39
140
1.0
102
RTVSPost2010PropOp39
 70
     1
102
RTVSPost2010Prop40
 90
        0
102
RTVSPost2010PropOp40
 70
     1
102
RTVSPost2010Prop41ColorIndex
 90
       18
102
RTVSPost2010Prop41ColorRGB
 90
        0
102
RTVSPost2010PropOp41
 70
     1
102
RTVSPost2010Prop42
 90
       50
102
RTVSPost2010PropOp42
 70
     1
102
RTVSPost2010Prop43
 90
        3
102
RTVSPost2010PropOp43
 70
     1
102
RTVSPost2010Prop44ColorIndex
 90
        5
102
RTVSPost2010Prop44ColorRGB
 90
      255
102
RTVSPost2010PropOp44
 70
     1
102
RTVSPost2010Prop45
280
     0
102
RTVSPost2010PropOp45
 70
     1
102
RTVSPost2010Prop46
 90
       50
102
RTVSPost2010PropOp46
 70
     1
102
RTVSPost2010Prop47
 90
       50
102
RTVSPost2010PropOp47
 70
     1
102
RTVSPost2010Prop48
 90
       50
102
RTVSPost2010PropOp48
 70
     1
102
RTVSPost2010Prop49
280
     0
102
RTVSPost2010PropOp49
 70
     1
102
RTVSPost2010Prop50
 90
       50
102
RTVSPost2010PropOp50
 70
     1
102
RTVSPost2010Prop51ColorIndex
 90
      256
102
RTVSPost2010Prop51ColorRGB
 90
-16777216
102
RTVSPost2010PropOp51
 70
     0
102
RTVSPost2010Prop52
140
1.0
102
RTVSPost2010PropOp52
 70
     0
102
RTVSPost2010Prop53
 90
        2
102
RTVSPost2010PropOp53
 70
     1
102
RTVSPost2010Prop54
  1
strokes_ogs.tif
102
RTVSPost2010PropOp54
 70
     1
102
RTVSPost2010Prop55
280
     0
102
RTVSPost2010PropOp55
 70
     1
102
RTVSPost2010Prop56
140
1.0
102
RTVSPost2010PropOp56
 70
     1
102
RTVSPost2010Prop57
140
1.0
102
RTVSPost2010PropOp57
 70
     1
102
RTVSPropertyOp0
 70
     1
102
RTVSPropertyOp1
 70
     1
102
RTVSPropertyOp2
 70
     1
102
RTVSPropertyOp3
 70
     1
102
RTVSPropertyOp4
 70
     1
102
RTVSPropertyOp5
 70
     1
102
RTVSPropertyOp6
 70
     1
102
RTVSPropertyOp7
 70
     1
102
RTVSPropertyOp8
 70
     1
102
RTVSPropertyOp9
 70
     1
102
RTVSPropertyOp10
 70
     1
102
RTVSPropertyOp11
 70
     1
102
RTVSPropertyOp12
 70
     1
102
RTVSPropertyOp13
 70
     1
102
RTVSPropertyOp14
 70
     1
102
RTVSPropertyOp15
 70
     1
102
RTVSPropertyOp16
 70
     1
102
RTVSPropertyOp17
 70
     1
102
RTVSPropertyOp18
 70
     1
102
RTVSPropertyOp19
 70
     1
102
RTVSPropertyOp20
 70
     1
102
RTVSPropertyOp21
 70
     1
102
RTVSPropertyOp22
 70
     1
102
RTVSPropertyOp23
 70
     1
102
RTVSPropertyOp24
 70
     1
102
RTVSPropertyOp25
 70
     1
102
RTVSPropertyOp26
 70
     1
102
RTVSPropertyOp27
 70
     1
102
RTVSPropertyOp28
 70
     1
102
RTVSPropertyOp29
 70
     1
102
RTVSPropertyOp30
 70
     1
102
RTVSPropertyOp31
 70
     1
102
RTVSPropertyOp32
 70
     1
102
RTVSPropertyOp33
 70
     1
102
RTVSPropertyOp34
 70
     1
102
RTVSPropertyOp35
 70
     1
102
RTVSPropertyOp36
 70
     1
102
RTVSPropertyOp37
 70
     1
102
RTVSPropertyOp38
 70
     1
102
RTVSPropertyOp39
 70
     1
102
RTVSPropertyOp40
 70
     1
102
RTVSPropertyOp41
 70
     1
102
RTVSPropertyOp42
 70
     1
102
RTVSPropertyOp43
 70
     1
102
RTVSPropertyOp44
 70
     1
102
RTVSPropertyOp45
 70
     1
102
RTVSPropertyOp46
 70
     1
102
RTVSPropertyOp47
 70
     1
102
RTVSPropertyOp48
 70
     1
102
RTVSPropertyOp49
 70
     1
102
RTVSPropertyOp50
 70
     1
102
RTVSPropertyOp51
 70
     0
102
RTVSPropertyOp52
 70
     0
102
RTVSPropertyOp53
 70
     1
102
RTVSPropertyOp54
 70
     1
102
RTVSPropertyOp55
 70
     1
102
RTVSPropertyOp56
 70
     1
102
RTVSPropertyOp57
 70
     1
102
RTVSPropertyOp58
 70
     1
102
RTVSPropertyOp59
 70
     1
102
RTVSPropertyOp60
 70
     1
102
RTVSPropertyOp61
 70
     1
102
RTVSPropertyOp62
 70
     1
  0
XRECORD
  5
1A137
102
{ACAD_REACTORS
330
1A136
102
}
330
1A136
100
AcDbXrecord
280
     1
102
RTVSPost2010Prop28
280
     0
102
RTVSPost2010PropOp28
 70
     1
102
RTVSPost2010Prop29
280
     1
102
RTVSPost2010PropOp29
 70
     1
102
RTVSPost2010Prop30
280
     1
102
RTVSPost2010PropOp30
 70
     1
102
RTVSPost2010Prop31
280
     0
102
RTVSPost2010PropOp31
 70
     1
102
RTVSPost2010Prop32
280
     0
102
RTVSPost2010PropOp32
 70
     1
102
RTVSPost2010Prop33
280
     0
102
RTVSPost2010PropOp33
 70
     1
102
RTVSPost2010Prop34
280
     0
102
RTVSPost2010PropOp34
 70
     1
102
RTVSPost2010Prop35
280
     0
102
RTVSPost2010PropOp35
 70
     1
102
RTVSPost2010Prop36
280
     0
102
RTVSPost2010PropOp36
 70
     1
102
RTVSPost2010Prop37
 90
       50
102
RTVSPost2010PropOp37
 70
     1
102
RTVSPost2010Prop38
140
0.0
102
RTVSPost2010PropOp38
 70
     1
102
RTVSPost2010Prop39
140
1.0
102
RTVSPost2010PropOp39
 70
     1
102
RTVSPost2010Prop40
 90
        0
102
RTVSPost2010PropOp40
 70
     1
102
RTVSPost2010Prop41ColorIndex
 90
       18
102
RTVSPost2010Prop41ColorRGB
 90
        0
102
RTVSPost2010PropOp41
 70
     1
102
RTVSPost2010Prop42
 90
       50
102
RTVSPost2010PropOp42
 70
     1
102
RTVSPost2010Prop43
 90
        3
102
RTVSPost2010PropOp43
 70
     1
102
RTVSPost2010Prop44ColorIndex
 90
        5
102
RTVSPost2010Prop44ColorRGB
 90
      255
102
RTVSPost2010PropOp44
 70
     1
102
RTVSPost2010Prop45
280
     0
102
RTVSPost2010PropOp45
 70
     1
102
RTVSPost2010Prop46
 90
       50
102
RTVSPost2010PropOp46
 70
     1
102
RTVSPost2010Prop47
 90
       50
102
RTVSPost2010PropOp47
 70
     1
102
RTVSPost2010Prop48
 90
       50
102
RTVSPost2010PropOp48
 70
     1
102
RTVSPost2010Prop49
280
     0
102
RTVSPost2010PropOp49
 70
     1
102
RTVSPost2010Prop50
 90
       50
102
RTVSPost2010PropOp50
 70
     1
102
RTVSPost2010Prop51ColorIndex
 90
      256
102
RTVSPost2010Prop51ColorRGB
 90
-16777216
102
RTVSPost2010PropOp51
 70
     0
102
RTVSPost2010Prop52
140
1.0
102
RTVSPost2010PropOp52
 70
     0
102
RTVSPost2010Prop53
 90
        2
102
RTVSPost2010PropOp53
 70
     1
102
RTVSPost2010Prop54
  1
strokes_ogs.tif
102
RTVSPost2010PropOp54
 70
     1
102
RTVSPost2010Prop55
280
     0
102
RTVSPost2010PropOp55
 70
     1
102
RTVSPost2010Prop56
140
1.0
102
RTVSPost2010PropOp56
 70
     1
102
RTVSPost2010Prop57
140
1.0
102
RTVSPost2010PropOp57
 70
     1
102
RTVSPropertyOp0
 70
     1
102
RTVSPropertyOp1
 70
     1
102
RTVSPropertyOp2
 70
     1
102
RTVSPropertyOp3
 70
     1
102
RTVSPropertyOp4
 70
     1
102
RTVSPropertyOp5
 70
     1
102
RTVSPropertyOp6
 70
     1
102
RTVSPropertyOp7
 70
     1
102
RTVSPropertyOp8
 70
     1
102
RTVSPropertyOp9
 70
     1
102
RTVSPropertyOp10
 70
     1
102
RTVSPropertyOp11
 70
     1
102
RTVSPropertyOp12
 70
     1
102
RTVSPropertyOp13
 70
     1
102
RTVSPropertyOp14
 70
     1
102
RTVSPropertyOp15
 70
     1
102
RTVSPropertyOp16
 70
     1
102
RTVSPropertyOp17
 70
     1
102
RTVSPropertyOp18
 70
     1
102
RTVSPropertyOp19
 70
     1
102
RTVSPropertyOp20
 70
     1
102
RTVSPropertyOp21
 70
     1
102
RTVSPropertyOp22
 70
     1
102
RTVSPropertyOp23
 70
     1
102
RTVSPropertyOp24
 70
     1
102
RTVSPropertyOp25
 70
     1
102
RTVSPropertyOp26
 70
     1
102
RTVSPropertyOp27
 70
     1
102
RTVSPropertyOp28
 70
     1
102
RTVSPropertyOp29
 70
     1
102
RTVSPropertyOp30
 70
     1
102
RTVSPropertyOp31
 70
     1
102
RTVSPropertyOp32
 70
     1
102
RTVSPropertyOp33
 70
     1
102
RTVSPropertyOp34
 70
     1
102
RTVSPropertyOp35
 70
     1
102
RTVSPropertyOp36
 70
     1
102
RTVSPropertyOp37
 70
     1
102
RTVSPropertyOp38
 70
     1
102
RTVSPropertyOp39
 70
     1
102
RTVSPropertyOp40
 70
     1
102
RTVSPropertyOp41
 70
     1
102
RTVSPropertyOp42
 70
     1
102
RTVSPropertyOp43
 70
     1
102
RTVSPropertyOp44
 70
     1
102
RTVSPropertyOp45
 70
     1
102
RTVSPropertyOp46
 70
     1
102
RTVSPropertyOp47
 70
     1
102
RTVSPropertyOp48
 70
     1
102
RTVSPropertyOp49
 70
     1
102
RTVSPropertyOp50
 70
     1
102
RTVSPropertyOp51
 70
     0
102
RTVSPropertyOp52
 70
     0
102
RTVSPropertyOp53
 70
     1
102
RTVSPropertyOp54
 70
     1
102
RTVSPropertyOp55
 70
     1
102
RTVSPropertyOp56
 70
     1
102
RTVSPropertyOp57
 70
     1
102
RTVSPropertyOp58
 70
     1
102
RTVSPropertyOp59
 70
     1
102
RTVSPropertyOp60
 70
     1
102
RTVSPropertyOp61
 70
     1
102
RTVSPropertyOp62
 70
     1
  0
XRECORD
  5
1A131
102
{ACAD_REACTORS
330
1A130
102
}
330
1A130
100
AcDbXrecord
280
     1
102
RTVSPost2010Prop28
280
     0
102
RTVSPost2010PropOp28
 70
     1
102
RTVSPost2010Prop29
280
     1
102
RTVSPost2010PropOp29
 70
     1
102
RTVSPost2010Prop30
280
     1
102
RTVSPost2010PropOp30
 70
     1
102
RTVSPost2010Prop31
280
     0
102
RTVSPost2010PropOp31
 70
     1
102
RTVSPost2010Prop32
280
     0
102
RTVSPost2010PropOp32
 70
     1
102
RTVSPost2010Prop33
280
     0
102
RTVSPost2010PropOp33
 70
     1
102
RTVSPost2010Prop34
280
     0
102
RTVSPost2010PropOp34
 70
     1
102
RTVSPost2010Prop35
280
     0
102
RTVSPost2010PropOp35
 70
     1
102
RTVSPost2010Prop36
280
     0
102
RTVSPost2010PropOp36
 70
     1
102
RTVSPost2010Prop37
 90
       50
102
RTVSPost2010PropOp37
 70
     1
102
RTVSPost2010Prop38
140
0.0
102
RTVSPost2010PropOp38
 70
     1
102
RTVSPost2010Prop39
140
1.0
102
RTVSPost2010PropOp39
 70
     1
102
RTVSPost2010Prop40
 90
        0
102
RTVSPost2010PropOp40
 70
     1
102
RTVSPost2010Prop41ColorIndex
 90
       18
102
RTVSPost2010Prop41ColorRGB
 90
        0
102
RTVSPost2010PropOp41
 70
     1
102
RTVSPost2010Prop42
 90
       50
102
RTVSPost2010PropOp42
 70
     1
102
RTVSPost2010Prop43
 90
        3
102
RTVSPost2010PropOp43
 70
     1
102
RTVSPost2010Prop44ColorIndex
 90
        5
102
RTVSPost2010Prop44ColorRGB
 90
      255
102
RTVSPost2010PropOp44
 70
     1
102
RTVSPost2010Prop45
280
     0
102
RTVSPost2010PropOp45
 70
     1
102
RTVSPost2010Prop46
 90
       50
102
RTVSPost2010PropOp46
 70
     1
102
RTVSPost2010Prop47
 90
       50
102
RTVSPost2010PropOp47
 70
     1
102
RTVSPost2010Prop48
 90
       50
102
RTVSPost2010PropOp48
 70
     1
102
RTVSPost2010Prop49
280
     0
102
RTVSPost2010PropOp49
 70
     1
102
RTVSPost2010Prop50
 90
       50
102
RTVSPost2010PropOp50
 70
     1
102
RTVSPost2010Prop51ColorIndex
 90
      256
102
RTVSPost2010Prop51ColorRGB
 90
-16777216
102
RTVSPost2010PropOp51
 70
     0
102
RTVSPost2010Prop52
140
1.0
102
RTVSPost2010PropOp52
 70
     0
102
RTVSPost2010Prop53
 90
        2
102
RTVSPost2010PropOp53
 70
     1
102
RTVSPost2010Prop54
  1
strokes_ogs.tif
102
RTVSPost2010PropOp54
 70
     1
102
RTVSPost2010Prop55
280
     0
102
RTVSPost2010PropOp55
 70
     1
102
RTVSPost2010Prop56
140
1.0
102
RTVSPost2010PropOp56
 70
     1
102
RTVSPost2010Prop57
140
1.0
102
RTVSPost2010PropOp57
 70
     1
102
RTVSPropertyOp0
 70
     1
102
RTVSPropertyOp1
 70
     1
102
RTVSPropertyOp2
 70
     1
102
RTVSPropertyOp3
 70
     1
102
RTVSPropertyOp4
 70
     1
102
RTVSPropertyOp5
 70
     1
102
RTVSPropertyOp6
 70
     1
102
RTVSPropertyOp7
 70
     1
102
RTVSPropertyOp8
 70
     1
102
RTVSPropertyOp9
 70
     1
102
RTVSPropertyOp10
 70
     1
102
RTVSPropertyOp11
 70
     1
102
RTVSPropertyOp12
 70
     1
102
RTVSPropertyOp13
 70
     1
102
RTVSPropertyOp14
 70
     1
102
RTVSPropertyOp15
 70
     1
102
RTVSPropertyOp16
 70
     1
102
RTVSPropertyOp17
 70
     1
102
RTVSPropertyOp18
 70
     1
102
RTVSPropertyOp19
 70
     1
102
RTVSPropertyOp20
 70
     1
102
RTVSPropertyOp21
 70
     1
102
RTVSPropertyOp22
 70
     1
102
RTVSPropertyOp23
 70
     1
102
RTVSPropertyOp24
 70
     1
102
RTVSPropertyOp25
 70
     1
102
RTVSPropertyOp26
 70
     1
102
RTVSPropertyOp27
 70
     1
102
RTVSPropertyOp28
 70
     1
102
RTVSPropertyOp29
 70
     1
102
RTVSPropertyOp30
 70
     1
102
RTVSPropertyOp31
 70
     1
102
RTVSPropertyOp32
 70
     1
102
RTVSPropertyOp33
 70
     1
102
RTVSPropertyOp34
 70
     1
102
RTVSPropertyOp35
 70
     1
102
RTVSPropertyOp36
 70
     1
102
RTVSPropertyOp37
 70
     1
102
RTVSPropertyOp38
 70
     1
102
RTVSPropertyOp39
 70
     1
102
RTVSPropertyOp40
 70
     1
102
RTVSPropertyOp41
 70
     1
102
RTVSPropertyOp42
 70
     1
102
RTVSPropertyOp43
 70
     1
102
RTVSPropertyOp44
 70
     1
102
RTVSPropertyOp45
 70
     1
102
RTVSPropertyOp46
 70
     1
102
RTVSPropertyOp47
 70
     1
102
RTVSPropertyOp48
 70
     1
102
RTVSPropertyOp49
 70
     1
102
RTVSPropertyOp50
 70
     1
102
RTVSPropertyOp51
 70
     0
102
RTVSPropertyOp52
 70
     0
102
RTVSPropertyOp53
 70
     1
102
RTVSPropertyOp54
 70
     1
102
RTVSPropertyOp55
 70
     1
102
RTVSPropertyOp56
 70
     1
102
RTVSPropertyOp57
 70
     1
102
RTVSPropertyOp58
 70
     1
102
RTVSPropertyOp59
 70
     1
102
RTVSPropertyOp60
 70
     1
102
RTVSPropertyOp61
 70
     1
102
RTVSPropertyOp62
 70
     1
  0
XRECORD
  5
1A133
102
{ACAD_REACTORS
330
1A132
102
}
330
1A132
100
AcDbXrecord
280
     1
102
RTVSPost2010Prop28
280
     0
102
RTVSPost2010PropOp28
 70
     1
102
RTVSPost2010Prop29
280
     1
102
RTVSPost2010PropOp29
 70
     1
102
RTVSPost2010Prop30
280
     1
102
RTVSPost2010PropOp30
 70
     1
102
RTVSPost2010Prop31
280
     0
102
RTVSPost2010PropOp31
 70
     1
102
RTVSPost2010Prop32
280
     0
102
RTVSPost2010PropOp32
 70
     1
102
RTVSPost2010Prop33
280
     0
102
RTVSPost2010PropOp33
 70
     1
102
RTVSPost2010Prop34
280
     0
102
RTVSPost2010PropOp34
 70
     1
102
RTVSPost2010Prop35
280
     0
102
RTVSPost2010PropOp35
 70
     1
102
RTVSPost2010Prop36
280
     0
102
RTVSPost2010PropOp36
 70
     1
102
RTVSPost2010Prop37
 90
       50
102
RTVSPost2010PropOp37
 70
     1
102
RTVSPost2010Prop38
140
0.0
102
RTVSPost2010PropOp38
 70
     1
102
RTVSPost2010Prop39
140
1.0
102
RTVSPost2010PropOp39
 70
     1
102
RTVSPost2010Prop40
 90
        0
102
RTVSPost2010PropOp40
 70
     1
102
RTVSPost2010Prop41ColorIndex
 90
       18
102
RTVSPost2010Prop41ColorRGB
 90
        0
102
RTVSPost2010PropOp41
 70
     1
102
RTVSPost2010Prop42
 90
       50
102
RTVSPost2010PropOp42
 70
     1
102
RTVSPost2010Prop43
 90
        3
102
RTVSPost2010PropOp43
 70
     1
102
RTVSPost2010Prop44ColorIndex
 90
        5
102
RTVSPost2010Prop44ColorRGB
 90
      255
102
RTVSPost2010PropOp44
 70
     1
102
RTVSPost2010Prop45
280
     0
102
RTVSPost2010PropOp45
 70
     1
102
RTVSPost2010Prop46
 90
       50
102
RTVSPost2010PropOp46
 70
     1
102
RTVSPost2010Prop47
 90
       50
102
RTVSPost2010PropOp47
 70
     1
102
RTVSPost2010Prop48
 90
       50
102
RTVSPost2010PropOp48
 70
     1
102
RTVSPost2010Prop49
280
     0
102
RTVSPost2010PropOp49
 70
     1
102
RTVSPost2010Prop50
 90
       50
102
RTVSPost2010PropOp50
 70
     1
102
RTVSPost2010Prop51ColorIndex
 90
      256
102
RTVSPost2010Prop51ColorRGB
 90
-16777216
102
RTVSPost2010PropOp51
 70
     0
102
RTVSPost2010Prop52
140
1.0
102
RTVSPost2010PropOp52
 70
     0
102
RTVSPost2010Prop53
 90
        2
102
RTVSPost2010PropOp53
 70
     1
102
RTVSPost2010Prop54
  1
strokes_ogs.tif
102
RTVSPost2010PropOp54
 70
     1
102
RTVSPost2010Prop55
280
     0
102
RTVSPost2010PropOp55
 70
     1
102
RTVSPost2010Prop56
140
1.0
102
RTVSPost2010PropOp56
 70
     1
102
RTVSPost2010Prop57
140
1.0
102
RTVSPost2010PropOp57
 70
     1
102
RTVSPropertyOp0
 70
     1
102
RTVSPropertyOp1
 70
     1
102
RTVSPropertyOp2
 70
     1
102
RTVSPropertyOp3
 70
     1
102
RTVSPropertyOp4
 70
     1
102
RTVSPropertyOp5
 70
     1
102
RTVSPropertyOp6
 70
     1
102
RTVSPropertyOp7
 70
     1
102
RTVSPropertyOp8
 70
     1
102
RTVSPropertyOp9
 70
     1
102
RTVSPropertyOp10
 70
     1
102
RTVSPropertyOp11
 70
     1
102
RTVSPropertyOp12
 70
     1
102
RTVSPropertyOp13
 70
     1
102
RTVSPropertyOp14
 70
     1
102
RTVSPropertyOp15
 70
     1
102
RTVSPropertyOp16
 70
     1
102
RTVSPropertyOp17
 70
     1
102
RTVSPropertyOp18
 70
     1
102
RTVSPropertyOp19
 70
     1
102
RTVSPropertyOp20
 70
     1
102
RTVSPropertyOp21
 70
     1
102
RTVSPropertyOp22
 70
     1
102
RTVSPropertyOp23
 70
     1
102
RTVSPropertyOp24
 70
     1
102
RTVSPropertyOp25
 70
     1
102
RTVSPropertyOp26
 70
     1
102
RTVSPropertyOp27
 70
     1
102
RTVSPropertyOp28
 70
     1
102
RTVSPropertyOp29
 70
     1
102
RTVSPropertyOp30
 70
     1
102
RTVSPropertyOp31
 70
     1
102
RTVSPropertyOp32
 70
     1
102
RTVSPropertyOp33
 70
     1
102
RTVSPropertyOp34
 70
     1
102
RTVSPropertyOp35
 70
     1
102
RTVSPropertyOp36
 70
     1
102
RTVSPropertyOp37
 70
     1
102
RTVSPropertyOp38
 70
     1
102
RTVSPropertyOp39
 70
     1
102
RTVSPropertyOp40
 70
     1
102
RTVSPropertyOp41
 70
     1
102
RTVSPropertyOp42
 70
     1
102
RTVSPropertyOp43
 70
     1
102
RTVSPropertyOp44
 70
     1
102
RTVSPropertyOp45
 70
     1
102
RTVSPropertyOp46
 70
     1
102
RTVSPropertyOp47
 70
     1
102
RTVSPropertyOp48
 70
     1
102
RTVSPropertyOp49
 70
     1
102
RTVSPropertyOp50
 70
     1
102
RTVSPropertyOp51
 70
     0
102
RTVSPropertyOp52
 70
     0
102
RTVSPropertyOp53
 70
     1
102
RTVSPropertyOp54
 70
     1
102
RTVSPropertyOp55
 70
     1
102
RTVSPropertyOp56
 70
     1
102
RTVSPropertyOp57
 70
     1
102
RTVSPropertyOp58
 70
     1
102
RTVSPropertyOp59
 70
     1
102
RTVSPropertyOp60
 70
     1
102
RTVSPropertyOp61
 70
     1
102
RTVSPropertyOp62
 70
     1
  0
XRECORD
  5
1A121
102
{ACAD_REACTORS
330
1A120
102
}
330
1A120
100
AcDbXrecord
280
     1
102
RTVSPost2010Prop28
280
     0
102
RTVSPost2010PropOp28
 70
     1
102
RTVSPost2010Prop29
280
     1
102
RTVSPost2010PropOp29
 70
     1
102
RTVSPost2010Prop30
280
     1
102
RTVSPost2010PropOp30
 70
     1
102
RTVSPost2010Prop31
280
     0
102
RTVSPost2010PropOp31
 70
     1
102
RTVSPost2010Prop32
280
     0
102
RTVSPost2010PropOp32
 70
     1
102
RTVSPost2010Prop33
280
     0
102
RTVSPost2010PropOp33
 70
     1
102
RTVSPost2010Prop34
280
     0
102
RTVSPost2010PropOp34
 70
     1
102
RTVSPost2010Prop35
280
     0
102
RTVSPost2010PropOp35
 70
     1
102
RTVSPost2010Prop36
280
     0
102
RTVSPost2010PropOp36
 70
     1
102
RTVSPost2010Prop37
 90
       50
102
RTVSPost2010PropOp37
 70
     1
102
RTVSPost2010Prop38
140
0.0
102
RTVSPost2010PropOp38
 70
     1
102
RTVSPost2010Prop39
140
1.0
102
RTVSPost2010PropOp39
 70
     1
102
RTVSPost2010Prop40
 90
        0
102
RTVSPost2010PropOp40
 70
     1
102
RTVSPost2010Prop41ColorIndex
 90
       18
102
RTVSPost2010Prop41ColorRGB
 90
        0
102
RTVSPost2010PropOp41
 70
     1
102
RTVSPost2010Prop42
 90
       50
102
RTVSPost2010PropOp42
 70
     1
102
RTVSPost2010Prop43
 90
        3
102
RTVSPost2010PropOp43
 70
     1
102
RTVSPost2010Prop44ColorIndex
 90
        5
102
RTVSPost2010Prop44ColorRGB
 90
      255
102
RTVSPost2010PropOp44
 70
     1
102
RTVSPost2010Prop45
280
     0
102
RTVSPost2010PropOp45
 70
     1
102
RTVSPost2010Prop46
 90
       50
102
RTVSPost2010PropOp46
 70
     1
102
RTVSPost2010Prop47
 90
       50
102
RTVSPost2010PropOp47
 70
     1
102
RTVSPost2010Prop48
 90
       50
102
RTVSPost2010PropOp48
 70
     1
102
RTVSPost2010Prop49
280
     0
102
RTVSPost2010PropOp49
 70
     1
102
RTVSPost2010Prop50
 90
       50
102
RTVSPost2010PropOp50
 70
     1
102
RTVSPost2010Prop51ColorIndex
 90
      256
102
RTVSPost2010Prop51ColorRGB
 90
-16777216
102
RTVSPost2010PropOp51
 70
     0
102
RTVSPost2010Prop52
140
1.0
102
RTVSPost2010PropOp52
 70
     0
102
RTVSPost2010Prop53
 90
        2
102
RTVSPost2010PropOp53
 70
     1
102
RTVSPost2010Prop54
  1
strokes_ogs.tif
102
RTVSPost2010PropOp54
 70
     1
102
RTVSPost2010Prop55
280
     0
102
RTVSPost2010PropOp55
 70
     1
102
RTVSPost2010Prop56
140
1.0
102
RTVSPost2010PropOp56
 70
     1
102
RTVSPost2010Prop57
140
1.0
102
RTVSPost2010PropOp57
 70
     1
102
RTVSPropertyOp0
 70
     1
102
RTVSPropertyOp1
 70
     1
102
RTVSPropertyOp2
 70
     1
102
RTVSPropertyOp3
 70
     1
102
RTVSPropertyOp4
 70
     1
102
RTVSPropertyOp5
 70
     1
102
RTVSPropertyOp6
 70
     1
102
RTVSPropertyOp7
 70
     1
102
RTVSPropertyOp8
 70
     1
102
RTVSPropertyOp9
 70
     1
102
RTVSPropertyOp10
 70
     1
102
RTVSPropertyOp11
 70
     1
102
RTVSPropertyOp12
 70
     1
102
RTVSPropertyOp13
 70
     1
102
RTVSPropertyOp14
 70
     1
102
RTVSPropertyOp15
 70
     1
102
RTVSPropertyOp16
 70
     1
102
RTVSPropertyOp17
 70
     1
102
RTVSPropertyOp18
 70
     1
102
RTVSPropertyOp19
 70
     1
102
RTVSPropertyOp20
 70
     1
102
RTVSPropertyOp21
 70
     1
102
RTVSPropertyOp22
 70
     1
102
RTVSPropertyOp23
 70
     1
102
RTVSPropertyOp24
 70
     1
102
RTVSPropertyOp25
 70
     1
102
RTVSPropertyOp26
 70
     1
102
RTVSPropertyOp27
 70
     1
102
RTVSPropertyOp28
 70
     1
102
RTVSPropertyOp29
 70
     1
102
RTVSPropertyOp30
 70
     1
102
RTVSPropertyOp31
 70
     1
102
RTVSPropertyOp32
 70
     1
102
RTVSPropertyOp33
 70
     1
102
RTVSPropertyOp34
 70
     1
102
RTVSPropertyOp35
 70
     1
102
RTVSPropertyOp36
 70
     1
102
RTVSPropertyOp37
 70
     1
102
RTVSPropertyOp38
 70
     1
102
RTVSPropertyOp39
 70
     1
102
RTVSPropertyOp40
 70
     1
102
RTVSPropertyOp41
 70
     1
102
RTVSPropertyOp42
 70
     1
102
RTVSPropertyOp43
 70
     1
102
RTVSPropertyOp44
 70
     1
102
RTVSPropertyOp45
 70
     1
102
RTVSPropertyOp46
 70
     1
102
RTVSPropertyOp47
 70
     1
102
RTVSPropertyOp48
 70
     1
102
RTVSPropertyOp49
 70
     1
102
RTVSPropertyOp50
 70
     1
102
RTVSPropertyOp51
 70
     0
102
RTVSPropertyOp52
 70
     0
102
RTVSPropertyOp53
 70
     1
102
RTVSPropertyOp54
 70
     1
102
RTVSPropertyOp55
 70
     1
102
RTVSPropertyOp56
 70
     1
102
RTVSPropertyOp57
 70
     1
102
RTVSPropertyOp58
 70
     1
102
RTVSPropertyOp59
 70
     1
102
RTVSPropertyOp60
 70
     1
102
RTVSPropertyOp61
 70
     1
102
RTVSPropertyOp62
 70
     1
  0
XRECORD
  5
1A115
102
{ACAD_REACTORS
330
1A114
102
}
330
1A114
100
AcDbXrecord
280
     1
102
RTVSPost2010Prop28
280
     0
102
RTVSPost2010PropOp28
 70
     1
102
RTVSPost2010Prop29
280
     1
102
RTVSPost2010PropOp29
 70
     1
102
RTVSPost2010Prop30
280
     1
102
RTVSPost2010PropOp30
 70
     1
102
RTVSPost2010Prop31
280
     0
102
RTVSPost2010PropOp31
 70
     1
102
RTVSPost2010Prop32
280
     0
102
RTVSPost2010PropOp32
 70
     1
102
RTVSPost2010Prop33
280
     0
102
RTVSPost2010PropOp33
 70
     1
102
RTVSPost2010Prop34
280
     0
102
RTVSPost2010PropOp34
 70
     1
102
RTVSPost2010Prop35
280
     0
102
RTVSPost2010PropOp35
 70
     1
102
RTVSPost2010Prop36
280
     0
102
RTVSPost2010PropOp36
 70
     1
102
RTVSPost2010Prop37
 90
       50
102
RTVSPost2010PropOp37
 70
     1
102
RTVSPost2010Prop38
140
0.0
102
RTVSPost2010PropOp38
 70
     1
102
RTVSPost2010Prop39
140
1.0
102
RTVSPost2010PropOp39
 70
     1
102
RTVSPost2010Prop40
 90
        0
102
RTVSPost2010PropOp40
 70
     1
102
RTVSPost2010Prop41ColorIndex
 90
       18
102
RTVSPost2010Prop41ColorRGB
 90
        0
102
RTVSPost2010PropOp41
 70
     1
102
RTVSPost2010Prop42
 90
       50
102
RTVSPost2010PropOp42
 70
     1
102
RTVSPost2010Prop43
 90
        3
102
RTVSPost2010PropOp43
 70
     1
102
RTVSPost2010Prop44ColorIndex
 90
        5
102
RTVSPost2010Prop44ColorRGB
 90
      255
102
RTVSPost2010PropOp44
 70
     1
102
RTVSPost2010Prop45
280
     0
102
RTVSPost2010PropOp45
 70
     1
102
RTVSPost2010Prop46
 90
       50
102
RTVSPost2010PropOp46
 70
     1
102
RTVSPost2010Prop47
 90
       50
102
RTVSPost2010PropOp47
 70
     1
102
RTVSPost2010Prop48
 90
       50
102
RTVSPost2010PropOp48
 70
     1
102
RTVSPost2010Prop49
280
     0
102
RTVSPost2010PropOp49
 70
     1
102
RTVSPost2010Prop50
 90
       50
102
RTVSPost2010PropOp50
 70
     1
102
RTVSPost2010Prop51ColorIndex
 90
      256
102
RTVSPost2010Prop51ColorRGB
 90
-16777216
102
RTVSPost2010PropOp51
 70
     0
102
RTVSPost2010Prop52
140
1.0
102
RTVSPost2010PropOp52
 70
     0
102
RTVSPost2010Prop53
 90
        2
102
RTVSPost2010PropOp53
 70
     1
102
RTVSPost2010Prop54
  1
strokes_ogs.tif
102
RTVSPost2010PropOp54
 70
     1
102
RTVSPost2010Prop55
280
     0
102
RTVSPost2010PropOp55
 70
     1
102
RTVSPost2010Prop56
140
1.0
102
RTVSPost2010PropOp56
 70
     1
102
RTVSPost2010Prop57
140
1.0
102
RTVSPost2010PropOp57
 70
     1
102
RTVSPropertyOp0
 70
     1
102
RTVSPropertyOp1
 70
     1
102
RTVSPropertyOp2
 70
     1
102
RTVSPropertyOp3
 70
     1
102
RTVSPropertyOp4
 70
     1
102
RTVSPropertyOp5
 70
     1
102
RTVSPropertyOp6
 70
     1
102
RTVSPropertyOp7
 70
     1
102
RTVSPropertyOp8
 70
     1
102
RTVSPropertyOp9
 70
     1
102
RTVSPropertyOp10
 70
     1
102
RTVSPropertyOp11
 70
     1
102
RTVSPropertyOp12
 70
     1
102
RTVSPropertyOp13
 70
     1
102
RTVSPropertyOp14
 70
     1
102
RTVSPropertyOp15
 70
     1
102
RTVSPropertyOp16
 70
     1
102
RTVSPropertyOp17
 70
     1
102
RTVSPropertyOp18
 70
     1
102
RTVSPropertyOp19
 70
     1
102
RTVSPropertyOp20
 70
     1
102
RTVSPropertyOp21
 70
     1
102
RTVSPropertyOp22
 70
     1
102
RTVSPropertyOp23
 70
     1
102
RTVSPropertyOp24
 70
     1
102
RTVSPropertyOp25
 70
     1
102
RTVSPropertyOp26
 70
     1
102
RTVSPropertyOp27
 70
     1
102
RTVSPropertyOp28
 70
     1
102
RTVSPropertyOp29
 70
     1
102
RTVSPropertyOp30
 70
     1
102
RTVSPropertyOp31
 70
     1
102
RTVSPropertyOp32
 70
     1
102
RTVSPropertyOp33
 70
     1
102
RTVSPropertyOp34
 70
     1
102
RTVSPropertyOp35
 70
     1
102
RTVSPropertyOp36
 70
     1
102
RTVSPropertyOp37
 70
     1
102
RTVSPropertyOp38
 70
     1
102
RTVSPropertyOp39
 70
     1
102
RTVSPropertyOp40
 70
     1
102
RTVSPropertyOp41
 70
     1
102
RTVSPropertyOp42
 70
     1
102
RTVSPropertyOp43
 70
     1
102
RTVSPropertyOp44
 70
     1
102
RTVSPropertyOp45
 70
     1
102
RTVSPropertyOp46
 70
     1
102
RTVSPropertyOp47
 70
     1
102
RTVSPropertyOp48
 70
     1
102
RTVSPropertyOp49
 70
     1
102
RTVSPropertyOp50
 70
     1
102
RTVSPropertyOp51
 70
     0
102
RTVSPropertyOp52
 70
     0
102
RTVSPropertyOp53
 70
     1
102
RTVSPropertyOp54
 70
     1
102
RTVSPropertyOp55
 70
     1
102
RTVSPropertyOp56
 70
     1
102
RTVSPropertyOp57
 70
     1
102
RTVSPropertyOp58
 70
     1
102
RTVSPropertyOp59
 70
     1
102
RTVSPropertyOp60
 70
     1
102
RTVSPropertyOp61
 70
     1
102
RTVSPropertyOp62
 70
     1
  0
XRECORD
  5
1A135
102
{ACAD_REACTORS
330
1A134
102
}
330
1A134
100
AcDbXrecord
280
     1
102
RTVSPost2010Prop28
280
     0
102
RTVSPost2010PropOp28
 70
     1
102
RTVSPost2010Prop29
280
     1
102
RTVSPost2010PropOp29
 70
     1
102
RTVSPost2010Prop30
280
     1
102
RTVSPost2010PropOp30
 70
     1
102
RTVSPost2010Prop31
280
     0
102
RTVSPost2010PropOp31
 70
     1
102
RTVSPost2010Prop32
280
     0
102
RTVSPost2010PropOp32
 70
     1
102
RTVSPost2010Prop33
280
     0
102
RTVSPost2010PropOp33
 70
     1
102
RTVSPost2010Prop34
280
     0
102
RTVSPost2010PropOp34
 70
     1
102
RTVSPost2010Prop35
280
     0
102
RTVSPost2010PropOp35
 70
     1
102
RTVSPost2010Prop36
280
     0
102
RTVSPost2010PropOp36
 70
     1
102
RTVSPost2010Prop37
 90
       50
102
RTVSPost2010PropOp37
 70
     1
102
RTVSPost2010Prop38
140
0.0
102
RTVSPost2010PropOp38
 70
     1
102
RTVSPost2010Prop39
140
1.0
102
RTVSPost2010PropOp39
 70
     1
102
RTVSPost2010Prop40
 90
        0
102
RTVSPost2010PropOp40
 70
     1
102
RTVSPost2010Prop41ColorIndex
 90
       18
102
RTVSPost2010Prop41ColorRGB
 90
        0
102
RTVSPost2010PropOp41
 70
     1
102
RTVSPost2010Prop42
 90
       50
102
RTVSPost2010PropOp42
 70
     1
102
RTVSPost2010Prop43
 90
        3
102
RTVSPost2010PropOp43
 70
     1
102
RTVSPost2010Prop44ColorIndex
 90
        5
102
RTVSPost2010Prop44ColorRGB
 90
      255
102
RTVSPost2010PropOp44
 70
     1
102
RTVSPost2010Prop45
280
     0
102
RTVSPost2010PropOp45
 70
     1
102
RTVSPost2010Prop46
 90
       50
102
RTVSPost2010PropOp46
 70
     1
102
RTVSPost2010Prop47
 90
       50
102
RTVSPost2010PropOp47
 70
     1
102
RTVSPost2010Prop48
 90
       50
102
RTVSPost2010PropOp48
 70
     1
102
RTVSPost2010Prop49
280
     0
102
RTVSPost2010PropOp49
 70
     1
102
RTVSPost2010Prop50
 90
       50
102
RTVSPost2010PropOp50
 70
     1
102
RTVSPost2010Prop51ColorIndex
 90
      256
102
RTVSPost2010Prop51ColorRGB
 90
-16777216
102
RTVSPost2010PropOp51
 70
     0
102
RTVSPost2010Prop52
140
1.0
102
RTVSPost2010PropOp52
 70
     0
102
RTVSPost2010Prop53
 90
        2
102
RTVSPost2010PropOp53
 70
     1
102
RTVSPost2010Prop54
  1
strokes_ogs.tif
102
RTVSPost2010PropOp54
 70
     1
102
RTVSPost2010Prop55
280
     0
102
RTVSPost2010PropOp55
 70
     1
102
RTVSPost2010Prop56
140
1.0
102
RTVSPost2010PropOp56
 70
     1
102
RTVSPost2010Prop57
140
1.0
102
RTVSPost2010PropOp57
 70
     1
102
RTVSPropertyOp0
 70
     1
102
RTVSPropertyOp1
 70
     1
102
RTVSPropertyOp2
 70
     1
102
RTVSPropertyOp3
 70
     1
102
RTVSPropertyOp4
 70
     1
102
RTVSPropertyOp5
 70
     1
102
RTVSPropertyOp6
 70
     1
102
RTVSPropertyOp7
 70
     1
102
RTVSPropertyOp8
 70
     1
102
RTVSPropertyOp9
 70
     1
102
RTVSPropertyOp10
 70
     1
102
RTVSPropertyOp11
 70
     1
102
RTVSPropertyOp12
 70
     1
102
RTVSPropertyOp13
 70
     1
102
RTVSPropertyOp14
 70
     1
102
RTVSPropertyOp15
 70
     1
102
RTVSPropertyOp16
 70
     1
102
RTVSPropertyOp17
 70
     1
102
RTVSPropertyOp18
 70
     1
102
RTVSPropertyOp19
 70
     1
102
RTVSPropertyOp20
 70
     1
102
RTVSPropertyOp21
 70
     1
102
RTVSPropertyOp22
 70
     1
102
RTVSPropertyOp23
 70
     1
102
RTVSPropertyOp24
 70
     1
102
RTVSPropertyOp25
 70
     1
102
RTVSPropertyOp26
 70
     1
102
RTVSPropertyOp27
 70
     1
102
RTVSPropertyOp28
 70
     1
102
RTVSPropertyOp29
 70
     1
102
RTVSPropertyOp30
 70
     1
102
RTVSPropertyOp31
 70
     1
102
RTVSPropertyOp32
 70
     1
102
RTVSPropertyOp33
 70
     1
102
RTVSPropertyOp34
 70
     1
102
RTVSPropertyOp35
 70
     1
102
RTVSPropertyOp36
 70
     1
102
RTVSPropertyOp37
 70
     1
102
RTVSPropertyOp38
 70
     1
102
RTVSPropertyOp39
 70
     1
102
RTVSPropertyOp40
 70
     1
102
RTVSPropertyOp41
 70
     1
102
RTVSPropertyOp42
 70
     1
102
RTVSPropertyOp43
 70
     1
102
RTVSPropertyOp44
 70
     1
102
RTVSPropertyOp45
 70
     1
102
RTVSPropertyOp46
 70
     1
102
RTVSPropertyOp47
 70
     1
102
RTVSPropertyOp48
 70
     1
102
RTVSPropertyOp49
 70
     1
102
RTVSPropertyOp50
 70
     1
102
RTVSPropertyOp51
 70
     0
102
RTVSPropertyOp52
 70
     0
102
RTVSPropertyOp53
 70
     1
102
RTVSPropertyOp54
 70
     1
102
RTVSPropertyOp55
 70
     1
102
RTVSPropertyOp56
 70
     1
102
RTVSPropertyOp57
 70
     1
102
RTVSPropertyOp58
 70
     1
102
RTVSPropertyOp59
 70
     1
102
RTVSPropertyOp60
 70
     1
102
RTVSPropertyOp61
 70
     1
102
RTVSPropertyOp62
 70
     1
  0
ENDSEC
  0
EOF
